Yngwie Malmsteen

Locked And Loaded


							
#---------------------------------- NOTE---------------------------------#

#------------------------------------------------------------------------------#

Gtr I (E A D G) - 'Bass'
Gtr II (Eb Ab Db Gb Bb Eb) - 'Backing Guitar'
 2/4                                              4/4

  H                                                E.   E.   E.   E.   E   E
|------------------------------------------------|-----------------------------|
|------------------------------------------------|-----------------------------|
|------------------------------------------------|-----------------------------|
|------------------------------------------------|-0----0----0----0----0---0---|

|     |----------9-----------| |-------9-------|

| Q   T  T  T  T  T  T  T  T T T T T T T T T T T   E  S E  S E  S E  S S S S S
|------------------------------------------------|-----------------------------|
|------------------------------------------------|-----------------------------|
|------------------------------------------------|-----------------------------|
|------------------------------------------------|-----------------------------|
|------------------------------------------------|-7----8----5----8----7---5---|
|----17S16S15S14S13S12S11S10S9S8S7S6S5S4S3S2S1S0-|----0----0----0----0---0---0-|

  E.   E.   E  T  T  T  T  T T  T  T T T  T T T T T T   E.   E.   E.   E.   E   E
|-------------10-11-10--------------------------------|--------------------------------|
|----------------------12-10-9------------------------|--------------------------------|
|------------------------------12-11-8-7--------------|--------------------------------|
|-0----0----0----------------------------10-8-7-5-4-1-|-0----0----0----0----0---0------|

| E  S E  S E  H                                        E  S E  S E  S E  S S S S S
|-----------------------------------------------------|--------------------------------|
|-----------------------------------------------------|--------------------------------|
|-----------------------------------------------------|--------------------------------|
|-----------------------------------------------------|--------------------------------|
|-7----8----5-----------------------------------------|-7----8----5----8----7---5------|
|----0----0-------------------------------------------|----0----0----0----0---0---0----|

  E.   E.   E  T  T  T  T  T T  T  T T T  T T T T T T
|-------------10-11-10--------------------------------|
|----------------------12-10-9------------------------|
|------------------------------12-11-8-7--------------|
|-0----0----0----------------------------10-8-7-5-4-1-|

| E  S E  S E  H
|-----------------------------------------------------|
|-----------------------------------------------------|
|-----------------------------------------------------|
|-----------------------------------------------------|
|-7----8----5-----------------------------------------|
|----0----0-------------------------------------------|

  S S S S S S S S S S S S S S S S
|----------------------------------|
|----------------------------------|
|----------------------------------|
|-0-0-0-0-0-0-0-0-0-0-0-0-0-0-0-0--|

| E   S E   S E   S E   S S S S S
|----------------------------------|
|----------------------------------|
|----------------------------------|
|----------------------------------|
|-7-----8-----5-----8-----7---5----|
|-----0-----0-----0-----0---0---0--|

  S S S S S S S S  T  T  T  T  T T  T  T T T  T T T T T T
|-----------------10-11-10--------------------------------|
|--------------------------12-10-9------------------------|
|----------------------------------12-11-8-7--------------|
|-0-0-0-0-0-0-0-0----------------------------10-8-7-5-4-1-|

| E   S E   S E    H
|---------------------------------------------------------|
|---------------------------------------------------------|
|---------------------------------------------------------|
|---------------------------------------------------------|
|-7-----8-----5-------------------------------------------|
|-----0-----0---------------------------------------------|

  S S S S S S S S S S S S S S S S
|---------------------------------|
|---------------------------------|
|---------------------------------|
|-0-0-0-0-0-0-0-0-0-0-0-0-0-0-0-0-|

| E   S E   S E   S E   S S S S S
|---------------------------------|
|---------------------------------|
|---------------------------------|
|---------------------------------|
|-7-----8-----5-----8-----7---5---|
|-----0-----0-----0-----0---0---0-|

  S S S S S S S S  T  T  T  T  T T  T  T T T  T T T T T T
|-----------------10-11-10--------------------------------||
|--------------------------12-10-9------------------------||
|----------------------------------12-11-8-7--------------||
|-0-0-0-0-0-0-0-0----------------------------10-8-7-5-4-1-||

| E   S E   S E    H
|---------------------------------------------------------||
|---------------------------------------------------------||
|---------------------------------------------------------||
|---------------------------------------------------------||
|-7-----8-----5-------------------------------------------||
|-----0-----0---------------------------------------------||

  S S S S S S S S S S S S S S S S
|---------------------------------|
|---------------------------------|
|---------------------------------|
|-0-0-0-0-0-0-0-0-0-0-0-0-0-0-0-0-|

| S S S S S S S S S S S S S S S S
|---------------------------------|
|---------------------------------|
|---------------------------------|
|---------------------------------|
|---------------------------------|
|-0-0-0-0-0-0-0-0-0-0-0-0-0-0-0-0-|

  S S S S S S S S S S S S S S S S   S S S S S S S S S S S S S S S S
|---------------------------------|---------------------------------|
|---------------------------------|---------------------------------|
|---------------------------------|---------------------------------|
|-0-0-0-0-0-0-0-0-0-0-0-0-0-0-0-0-|-0-0-0-0-0-0-0-0-0-0-0-0-0-0-0-0-|

| S S S S S S S S S S S S S S S S   S S S S S S S S S S S S S S S S
|---------------------------------|---------------------------------|
|---------------------------------|---------------------------------|
|---------------------------------|---------------------------------|
|---------------------------------|---------------------------------|
|---------------------------------|---------------------------------|
|-0-0-0-0-0-0-0-0-0-0-0-0-0-0-0-0-|-0-0-0-0-0-0-0-0-0-0-0-0-0-0-0-0-|

  S S S S S S S S S S S S S S S S   S S S S S S S S S S S S S S S S
|---------------------------------|---------------------------------|
|---------------------------------|---------------------------------|
|---------------------------------|---------------------------------|
|-0-0-0-0-0-0-0-0-0-0-0-0-0-0-0-0-|-0-0-0-0-0-0-0-0-0-0-0-0-0-0-0-0-|

| S S S S S S S S S S S S S S S S   S S S S S S S S S S S S S S S S
|---------------------------------|---------------------------------|
|---------------------------------|---------------------------------|
|---------------------------------|---------------------------------|
|---------------------------------|---------------------------------|
|---------------------------------|---------------------------------|
|-0-0-0-0-0-0-0-0-0-0-0-0-0-0-0-0-|-0-0-0-0-0-0-0-0-0-0-0-0-0-0-0-0-|

  S S S S S S S S S S S S S S S S   S S S S S S S S S S S S S S S S
|---------------------------------|---------------------------------|
|---------------------------------|---------------------------------|
|---------------------------------|---------------------------------|
|-0-0-0-0-0-0-0-0-0-0-0-0-0-0-0-0-|-0-0-0-0-0-0-0-0-0-0-0-0-0-0-0-0-|

| S S S S S S S S S S S S S S S S   S S S S S S S S S S S S S S S S
|---------------------------------|---------------------------------|
|---------------------------------|---------------------------------|
|---------------------------------|---------------------------------|
|---------------------------------|---------------------------------|
|---------------------------------|---------------------------------|
|-0-0-0-0-0-0-0-0-0-0-0-0-0-0-0-0-|-0-0-0-0-0-0-0-0-0-0-0-0-0-0-0-0-|

  S S S S S S S S S S S S S     S     S     S
|-------------------------------------------------||
|-------------------------------------------------||
|-------------------------------------------------||
|-0-0-0-0-0-0-0-0-0-0-0-0-0-----0-----0-----0-----||

|                         |---10----| |---10----|

| S S S S S S S S S S S S S S S   S S S S S   S S
|-------------------------------------------------||
|-------------------------------------------------||
|-------------------------------------------------||
|-------------------------------------------------||
|-------------------------------------------------||
|-0-0-0-0-0-0-0-0-0-0-0-0-9S8S7S==6S5S4S3S2S==1S0-||

  S S S S S S S S S S S S S S S S
|---------------------------------|
|---------------------------------|
|-------2-1---------1-2-4-5-4-2-1-|
|-0-2-3-----3-0-2-3---------------|

| S S S S S S S S S S S S S S S S
|---------------------------------|
|---------------------------------|
|---------------------------------|
|---------------------------------|
|-------2-1---------1-2-4-5-4-2-1-|
|-0-2-3-----3-0-2-3---------------|

  S S S S S S S S S S S S S S S S   S S S S S S S S S S S S S S S S
|---------------------------------|---------------------------------|
|---------------------------------|---------------------------------|
|-------2-1---------1-2-4-5-4-2-1-|-------2-1---------1-2-4-5-4-2-1-|
|-0-2-3-----3-0-2-3---------------|-0-2-3-----3-0-2-3---------------|

| S S S S S S S S S S S S S S S S   S S S S S S S S S S S S S S S S
|---------------------------------|---------------------------------|
|---------------------------------|---------------------------------|
|---------------------------------|---------------------------------|
|---------------------------------|---------------------------------|
|-------2-1---------1-2-4-5-4-2-1-|-------2-1---------1-2-4-5-4-2-1-|
|-0-2-3-----3-0-2-3---------------|-0-2-3-----3-0-2-3---------------|

  S S S S S S S S S S S S S S S S    S S S S S S S S S S S S S S S S
|---------------------------------||---------------------------------|
|---------------------------------||---------------------------------|
|-------2-1---------1-2-4-5-4-2-1-||---------------------------------|
|-0-2-3-----3-0-2-3---------------||-0-0-0-0-0-0-0-0-0-0-0-0-0-0-0-0-|

| S S S S S S S S S S S S S S S S    E   S E   S E   S E   S S S S S
|---------------------------------||---------------------------------|
|---------------------------------||---------------------------------|
|---------------------------------||---------------------------------|
|---------------------------------||---------------------------------|
|-------2-1---------1-2-4-5-4-2-1-||-7-----8-----5-----8-----7---5---|
|-0-2-3-----3-0-2-3---------------||-----0-----0-----0-----0---0---0-|

  S S S S S S S S  T  T  T  T  T T  T  T T T  T T T T T T
|-----------------10-11-10--------------------------------|
|--------------------------12-10-9------------------------|
|----------------------------------12-11-8-7--------------|
|-0-0-0-0-0-0-0-0----------------------------10-8-7-5-4-1-|

| E   S E   S E    H
|---------------------------------------------------------|
|---------------------------------------------------------|
|---------------------------------------------------------|
|---------------------------------------------------------|
|-7-----8-----5-------------------------------------------|
|-----0-----0---------------------------------------------|

  S S S S S S S S S S S S S S S S
|---------------------------------|
|---------------------------------|
|---------------------------------|
|-0-0-0-0-0-0-0-0-0-0-0-0-0-0-0-0-|

| E   S E   S E   S E   S S S S S
|---------------------------------|
|---------------------------------|
|---------------------------------|
|---------------------------------|
|-7-----8-----5-----8-----7---5---|
|-----0-----0-----0-----0---0---0-|

  S S S S S S S S  T  T  T  T  T T  T  T T T  T T T T T T
|-----------------10-11-10--------------------------------||
|--------------------------12-10-9------------------------||
|----------------------------------12-11-8-7--------------||
|-0-0-0-0-0-0-0-0----------------------------10-8-7-5-4-1-||

| E   S E   S E    H
|---------------------------------------------------------||
|---------------------------------------------------------||
|---------------------------------------------------------||
|---------------------------------------------------------||
|-7-----8-----5-------------------------------------------||
|-----0-----0---------------------------------------------||

  S S S S S S S S S S S S S S S S
|---------------------------------|
|---------------------------------|
|---------------------------------|
|-0-0-0-0-0-0-0-0-0-0-0-0-0-0-0-0-|

| S S S S S S S S S S S S S S S S
|---------------------------------|
|---------------------------------|
|---------------------------------|
|---------------------------------|
|---------------------------------|
|-0-0-0-0-0-0-0-0-0-0-0-0-0-0-0-0-|

  S S S S S S S S S S S S S S S S   S S S S S S S S S S S S S S S S
|---------------------------------|---------------------------------|
|---------------------------------|---------------------------------|
|---------------------------------|---------------------------------|
|-0-0-0-0-0-0-0-0-0-0-0-0-0-0-0-0-|-0-0-0-0-0-0-0-0-0-0-0-0-0-0-0-0-|

| S S S S S S S S S S S S S S S S   S S S S S S S S S S S S S S S S
|---------------------------------|---------------------------------|
|---------------------------------|---------------------------------|
|---------------------------------|---------------------------------|
|---------------------------------|---------------------------------|
|---------------------------------|---------------------------------|
|-0-0-0-0-0-0-0-0-0-0-0-0-0-0-0-0-|-0-0-0-0-0-0-0-0-0-0-0-0-0-0-0-0-|

  S S S S S S S S S S S S S S S S   S S S S S S S S S S S S S S S S
|---------------------------------|---------------------------------|
|---------------------------------|---------------------------------|
|---------------------------------|---------------------------------|
|-0-0-0-0-0-0-0-0-0-0-0-0-0-0-0-0-|-0-0-0-0-0-0-0-0-0-0-0-0-0-0-0-0-|

| S S S S S S S S S S S S S S S S   S S S S S S S S S S S S S S S S
|---------------------------------|---------------------------------|
|---------------------------------|---------------------------------|
|---------------------------------|---------------------------------|
|---------------------------------|---------------------------------|
|---------------------------------|---------------------------------|
|-0-0-0-0-0-0-0-0-0-0-0-0-0-0-0-0-|-0-0-0-0-0-0-0-0-0-0-0-0-0-0-0-0-|

  S S S S S S S S S S S S S S S S   S S S S S S S S S S S S S S S S
|---------------------------------|---------------------------------|
|---------------------------------|---------------------------------|
|---------------------------------|---------------------------------|
|-0-0-0-0-0-0-0-0-0-0-0-0-0-0-0-0-|-0-0-0-0-0-0-0-0-0-0-0-0-0-0-0-0-|

| S S S S S S S S S S S S S S S S   S S S S S S S S S S S S S S S S
|---------------------------------|---------------------------------|
|---------------------------------|---------------------------------|
|---------------------------------|---------------------------------|
|---------------------------------|---------------------------------|
|---------------------------------|---------------------------------|
|-0-0-0-0-0-0-0-0-0-0-0-0-0-0-0-0-|-0-0-0-0-0-0-0-0-0-0-0-0-0-0-0-0-|

  S S S S S S S S S S S S S     S     S     S
|-------------------------------------------------||
|-------------------------------------------------||
|-------------------------------------------------||
|-0-0-0-0-0-0-0-0-0-0-0-0-0-----0-----0-----0-----||

|                         |---10----| |---10----|

| S S S S S S S S S S S S S S S   S S S S S   S S
|-------------------------------------------------||
|-------------------------------------------------||
|-------------------------------------------------||
|-------------------------------------------------||
|-------------------------------------------------||
|-0-0-0-0-0-0-0-0-0-0-0-0-9S8S7S==6S5S4S3S2S==1S0-||

  S S S S S S S S S S S S S S S S
|---------------------------------|
|---------------------------------|
|-------2-1---------1-2-4-5-4-2-1-|
|-0-2-3-----3-0-2-3---------------|

| S S S S S S S S S S S S S S S S
|---------------------------------|
|---------------------------------|
|---------------------------------|
|---------------------------------|
|-------2-1---------1-2-4-5-4-2-1-|
|-0-2-3-----3-0-2-3---------------|

  S S S S S S S S S S S S S S S S   S S S S S S S S S S S S S S S S
|---------------------------------|---------------------------------|
|---------------------------------|---------------------------------|
|-------2-1---------1-2-4-5-4-2-1-|-------2-1---------1-2-4-5-4-2-1-|
|-0-2-3-----3-0-2-3---------------|-0-2-3-----3-0-2-3---------------|

| S S S S S S S S S S S S S S S S   S S S S S S S S S S S S S S S S
|---------------------------------|---------------------------------|
|---------------------------------|---------------------------------|
|---------------------------------|---------------------------------|
|---------------------------------|---------------------------------|
|-------2-1---------1-2-4-5-4-2-1-|-------2-1---------1-2-4-5-4-2-1-|
|-0-2-3-----3-0-2-3---------------|-0-2-3-----3-0-2-3---------------|

  S S S S S S S S S S S S S S S S    S S S S S S S S S S S S S S S S
|---------------------------------||---------------------------------|
|---------------------------------||---------------------------------|
|-------2-1---------1-2-4-5-4-2-1-||---------------------------------|
|-0-2-3-----3-0-2-3---------------||-0-0-0-0-0-0-0-0-0-0-0-0-0-0-0-0-|

| S S S S S S S S S S S S S S S S    E   S E   S E   S E   S S S S S
|---------------------------------||---------------------------------|
|---------------------------------||---------------------------------|
|---------------------------------||---------------------------------|
|---------------------------------||---------------------------------|
|-------2-1---------1-2-4-5-4-2-1-||-7-----8-----5-----8-----7---5---|
|-0-2-3-----3-0-2-3---------------||-----0-----0-----0-----0---0---0-|

  S S S S S S S S  T  T  T  T  T T  T  T T T  T T T T T T
|-----------------10-11-10--------------------------------|
|--------------------------12-10-9------------------------|
|----------------------------------12-11-8-7--------------|
|-0-0-0-0-0-0-0-0----------------------------10-8-7-5-4-1-|

| E   S E   S E    H
|---------------------------------------------------------|
|---------------------------------------------------------|
|---------------------------------------------------------|
|---------------------------------------------------------|
|-7-----8-----5-------------------------------------------|
|-----0-----0---------------------------------------------|

  S S S S S S S S S S S S S S S S
|---------------------------------|
|---------------------------------|
|---------------------------------|
|-0-0-0-0-0-0-0-0-0-0-0-0-0-0-0-0-|

| E   S E   S E   S E   S S S S S
|---------------------------------|
|---------------------------------|
|---------------------------------|
|---------------------------------|
|-7-----8-----5-----8-----7---5---|
|-----0-----0-----0-----0---0---0-|

  S S S S S S S S  T  T  T  T  T T  T  T T T  T T T T T T
|-----------------10-11-10--------------------------------|
|--------------------------12-10-9------------------------|
|----------------------------------12-11-8-7--------------|
|-0-0-0-0-0-0-0-0----------------------------10-8-7-5-4-1-|

| E   S E   S E    H
|---------------------------------------------------------|
|---------------------------------------------------------|
|---------------------------------------------------------|
|---------------------------------------------------------|
|-7-----8-----5-------------------------------------------|
|-----0-----0---------------------------------------------|

  S S S S S S S S S S S S S S S S
|---------------------------------|
|---------------------------------|
|---------------------------------|
|-0-0-0-0-0-0-0-0-0-0-0-0-0-0-0-0-|

| E   S E   S E   S E   S S S S S
|---------------------------------|
|---------------------------------|
|---------------------------------|
|---------------------------------|
|-7-----8-----5-----8-----7---5---|
|-----0-----0-----0-----0---0---0-|

  S S S S S S S S  T  T  T  T  T T  T  T T T  T T T T T T
|-----------------10-11-10--------------------------------|
|--------------------------12-10-9------------------------|
|----------------------------------12-11-8-7--------------|
|-0-0-0-0-0-0-0-0----------------------------10-8-7-5-4-1-|

| E   S E   S E    H
|---------------------------------------------------------|
|---------------------------------------------------------|
|---------------------------------------------------------|
|---------------------------------------------------------|
|-7-----8-----5-------------------------------------------|
|-----0-----0---------------------------------------------|

  S S S S S S S S S S S S S S S S
|---------------------------------|
|---------------------------------|
|---------------------------------|
|-0-0-0-0-0-0-0-0-0-0-0-0-0-0-0-0-|

| E   S E   S E   S E   S S S S S
|---------------------------------|
|---------------------------------|
|---------------------------------|
|---------------------------------|
|-7-----8-----5-----8-----7---5---|
|-----0-----0-----0-----0---0---0-|

                          2/4       4/4

  S S S S S S S S E Q.     E Q.      S S S S S S S S S S S S S S S S
|------------------------|--------||----------------------------------|
|------------------------|--------||----------------------------------|
|------------------------|--------||----------------------------------|
|-0-0-0-0-0-0-0-0-0------|-2------||-2-2-2-2-2-2-2-2-2-2-2-2-2-2-2-2--|

|             ~~~~~~

| E   S E   S E   E Q.     E Q.      S S S S S S S S S S S S S S S S
|------------------------|--------||----------------------------------|
|------------------------|--------||----------------------------------|
|------------------------|--------||----------------------------------|
|------------------------|--------||----------------------------------|
|-7-----8-----5----------|--------||----------------------------------|
|-----0-----0-----0------|-2------||-2-2-2-2-2-2-2-2-2-2-2-2-2-2-2-2--|

  S S S S S S S S S S S S S S S S   S S S S S S S S S S S S S S S S
|---------------------------------|---------------------------------|
|---------------------------------|---------------------------------|
|---------------------------------|---------------------------------|
|-2-2-2-2-2-2-2-2-2-2-2-2-2-2-2-2-|-2-2-2-2-2-2-2-2-2-2-2-2-2-2-2-2-|

| S S S S S S S S S S S S S S S S   S S S S S S S S S S S S S S S S
|---------------------------------|---------------------------------|
|---------------------------------|---------------------------------|
|---------------------------------|---------------------------------|
|---------------------------------|---------------------------------|
|---------------------------------|---------------------------------|
|-2-2-2-2-2-2-2-2-2-2-2-2-2-2-2-2-|-2-2-2-2-2-2-2-2-2-2-2-2-2-2-2-2-|

  S S S S S S S S S S S S S S S S   S S S S S S S S S S S S S S S S
|---------------------------------|---------------------------------|
|---------------------------------|---------------------------------|
|---------------------------------|---------------------------------|
|-2-2-2-2-2-2-2-2-2-2-2-2-2-2-2-2-|-2-2-2-2-2-2-2-2-2-2-2-2-2-2-2-2-|

| S S S S S S S S S S S S S S S S   S S S S S S S S S S S S S S S S
|---------------------------------|---------------------------------|
|---------------------------------|---------------------------------|
|---------------------------------|---------------------------------|
|---------------------------------|---------------------------------|
|---------------------------------|---------------------------------|
|-2-2-2-2-2-2-2-2-2-2-2-2-2-2-2-2-|-2-2-2-2-2-2-2-2-2-2-2-2-2-2-2-2-|

  S S S S S S S S S S S S S S S S   S S S S S S S S S S S S S S S S
|---------------------------------|---------------------------------|
|---------------------------------|---------------------------------|
|---------------------------------|---------------------------------|
|-2-2-2-2-2-2-2-2-2-2-2-2-2-2-2-2-|-2-2-2-2-2-2-2-2-2-2-2-2-2-2-2-2-|

| S S S S S S S S S S S S S S S S   S S S S S S S S S S S S S S S S
|---------------------------------|---------------------------------|
|---------------------------------|---------------------------------|
|---------------------------------|---------------------------------|
|---------------------------------|---------------------------------|
|---------------------------------|---------------------------------|
|-2-2-2-2-2-2-2-2-2-2-2-2-2-2-2-2-|-2-2-2-2-2-2-2-2-2-2-2-2-2-2-2-2-|

  S S S S S S S S S S S S S S S S    S S S   S S S   S S S S S    S S S    S S
|---------------------------------|--------------------------------------------|
|---------------------------------|--------------------------------------------|
|-----------------------2-1-------|--------------------------------------------|
|-2-2-2-2-2-2-2-2-0-2-3-----3-2-0-|--2-2-2---2-2-2---2-2-2-2-2----2-2-2----2-2-|

|                                    ~~~~~~~~~~~~~~~~~~~~~~~~~~~~~~~~~~~~~~
|                                    |------3------|     |-------3-------|

| S S S S S S S S S S S S S S S S    Q     Q       Q     Q      Q        Q
|---------------------------------|--------------------------------------------|
|---------------------------------|--------------------------------------------|
|---------------------------------|-/7-----6-------9-----7-----12-------11-----|
|---------------------------------|--------------------------------------------|
|-----------------------2-1-------|--------------------------------------------|
|-2-2-2-2-2-2-2-2-0-2-3-----3-2-0-|--------------------------------------------|

   S S S    S S S    S S  S S S       S S S S S
|-----------------------------------------------|
|-----------------------------------------------|
|-----------------------------------------------|
|--2-2-2----2-2-2----2-2--2-2-2-------2-2-2-2-2-|

|  ~~~~~~~~~~~~~~~~~~~~~~~~~~~~~~~~~~~
|  |-------3-------|      |--3---|

|  Q      Q        Q      Q      H
|-----------------14-----12-----14b15-----------|
|-14-----11-------------------------------------|
|-----------------------------------------------|
|-----------------------------------------------|
|-----------------------------------------------|
|-----------------------------------------------|

  S S S S S S S S S S S S S S S S
|----------------------------------|
|----------------------------------|
|----------------------------------|
|-2-2-2-2-2-2-2-2-2-2-2-2-2-2-2-2--|

| S S S S S S S S S S S S S S S S
|----------------------------------|
|----------------------------------|
|----------------------------------|
|----------------------------------|
|----------------------------------|
|-2-2-2-2-2-2-2-2-2-2-2-2-2-2-2-2--|

  S S S S S S S S S S S S S S S S   S S S S S S S S S S S S S S S S
|---------------------------------|---------------------------------|
|---------------------------------|---------------------------------|
|---------------------------------|---------------------------------|
|-2-2-2-2-2-2-2-2-2-2-2-2-2-2-2-2-|-2-2-2-2-2-2-2-2-2-2-2-2-2-2-2-2-|

| S S S S S S S S S S S S S S S S   S S S S S S S S S S S S S S S S
|---------------------------------|---------------------------------|
|---------------------------------|---------------------------------|
|---------------------------------|---------------------------------|
|---------------------------------|---------------------------------|
|---------------------------------|---------------------------------|
|-2-2-2-2-2-2-2-2-2-2-2-2-2-2-2-2-|-2-2-2-2-2-2-2-2-2-2-2-2-2-2-2-2-|

  S S S S S S S S S S S S S S S S   S S S S S S S S S S S S S S S S
|---------------------------------|---------------------------------|
|---------------------------------|---------------------------------|
|---------------------------------|---------------------------------|
|-2-2-2-2-2-2-2-2-2-2-2-2-2-2-2-2-|-2-2-2-2-2-2-2-2-2-2-2-2-2-2-2-2-|

| S S S S S S S S S S S S S S S S   S S S S S S S S S S S S S S S S
|---------------------------------|---------------------------------|
|---------------------------------|---------------------------------|
|---------------------------------|---------------------------------|
|---------------------------------|---------------------------------|
|---------------------------------|---------------------------------|
|-2-2-2-2-2-2-2-2-2-2-2-2-2-2-2-2-|-2-2-2-2-2-2-2-2-2-2-2-2-2-2-2-2-|

  S S S S S S S S S S S S S S S S    W
|---------------------------------||----------|
|---------------------------------||----------|
|---------------------------------||----------|
|-2-2-2-2-2-2-2-2-2-2-2-2-2-2-2-2-||-7--------|

| S S S S S S S S S S S S S S S S    W
|---------------------------------||----------|
|---------------------------------||----------|
|---------------------------------||----------|
|---------------------------------||----------|
|---------------------------------||----------|
|-2-2-2-2-2-2-2-2-2-2-2-2-2-2-2-2-||-7--------|

  E E H.        W          E E H.
|-------------|----------|-----------|
|-------------|----------|-----------|
|-------------|----------|-----------|
|-6-----------|-7--------|-6---------|

| E E H.        W          E E H.
|-------------|----------|-----------|
|-------------|----------|-----------|
|-------------|----------|-----------|
|-------------|----------|-----------|
|-------------|----------|-----------|
|-6-----------|-7--------|-6---------|

  S S S S S S S S S S S S S S S S   S S S S S S S S S S S S S S S S
|---------------------------------|---------------------------------|
|---------------------------------|---------------------------------|
|-2-2-2-2-1-1-1-1-2-2-4-4-5-5-2-2-|-1-1-1-1-4-4-4-4-2-2-2-2-2-2-2-2-|
|---------------------------------|---------------------------------|

| S S S S S S S S S S S S S S S S   S S S S S S S S S S S S S S S S
|---------------------------------|---------------------------------|
|---------------------------------|---------------------------------|
|---------------------------------|---------------------------------|
|---------------------------------|---------------------------------|
|-2-2-2-2-1-1-1-1-2-2-4-4-5-5-2-2-|-1-1-1-1-4-4-4-4-2-2-2-2-2-2-2-2-|
|---------------------------------|---------------------------------|

  S S S S S S S S S S S S S S S S   S S S S S S S S S S S S S S S S
|---------------------------------|---------------------------------|
|---------------------------------|---------------------------------|
|---------------------------------|---------------------------------|
|-3-3-3-3-3-3-3-3-3-3-3-3-3-3-3-3-|-2-2-2-2-2-2-2-2-2-2-2-2-2-2-2-2-|

| S S S S S S S S S S S S S S S S   S S S S S S S S S S S S S S S S
|---------------------------------|---------------------------------|
|---------------------------------|---------------------------------|
|---------------------------------|---------------------------------|
|---------------------------------|---------------------------------|
|---------------------------------|---------------------------------|
|-3-3-3-3-3-3-3-3-3-3-3-3-3-3-3-3-|-2-2-2-2-2-2-2-2-2-2-2-2-2-2-2-2-|

  S S S S S S S S S S S S S S S S
|---------------------------------|
|---------------------------------|
|---------------------------------|
|-0-0-0-0-0-0-0-0-0-0-0-0-0-0-0-0-|

| S S S S S S S S S S S S S S S S
|---------------------------------|
|---------------------------------|
|---------------------------------|
|---------------------------------|
|---------------------------------|
|-0-0-0-0-0-0-0-0-0-0-0-0-0-0-0-0-|

                                             2/4

  S S S S S S S S E E E E   E E E E E E E E   H
|-------------------------|-----------------|------|
|-------------------------|-----------------|------|
|-------------------------|-----------------|------|
|-1-1-1-1-1-1-1-1-2-1-2-1-|-2-1-2-1-2-1-2-1-|-2----|

| S S S S S S S S E E E E   E E E E E E E E   H
|-------------------------|-----------------|------|
|-------------------------|-----------------|------|
|-------------------------|-----------------|------|
|-------------------------|-----------------|------|
|-------------------------|-----------------|------|
|-1-1-1-1-1-1-1-1-2-1-2-1-|-2-1-2-1-2-1-2-1-|-2----|

 4/4

  E.   E.   E.   E.   E   E     E.   E.   E  T  T  T  T  T T  T  T T T  T T T T T T
|-----------------------------|-------------10-11-10--------------------------------|
|-----------------------------|----------------------12-10-9------------------------|
|-----------------------------|------------------------------12-11-8-7--------------|
|-0----0----0----0----0---0---|-0----0----0----------------------------10-8-7-5-4-1-|

| E  S E  S E  S E  S S S S S   E  S E  S E  H
|-----------------------------|-----------------------------------------------------|
|-----------------------------|-----------------------------------------------------|
|-----------------------------|-----------------------------------------------------|
|-----------------------------|-----------------------------------------------------|
|-7----8----5----8----7---5---|-7----8----5-----------------------------------------|
|----0----0----0----0---0---0-|----0----0-------------------------------------------|

  E.   E.   E.   E.   E   E
|-------------------------------|
|-------------------------------|
|-------------------------------|
|-0----0----0----0----0---0-----|

| E  S E  S E  S E  S S S S S
|-------------------------------|
|-------------------------------|
|-------------------------------|
|-------------------------------|
|-7----8----5----8----7---5-----|
|----0----0----0----0---0---0---|

  E.   E.   E  T  T  T  T  T T  T  T T T  T T T T T T
|-------------10-11-10--------------------------------|
|----------------------12-10-9------------------------|
|------------------------------12-11-8-7--------------|
|-0----0----0----------------------------10-8-7-5-4-1-|

| E  S E  S E  H
|-----------------------------------------------------|
|-----------------------------------------------------|
|-----------------------------------------------------|
|-----------------------------------------------------|
|-7----8----5-----------------------------------------|
|----0----0-------------------------------------------|

  S S S S S S S S S S S S S S S S
|----------------------------------|
|----------------------------------|
|----------------------------------|
|-0-0-0-0-0-0-0-0-0-0-0-0-0-0-0-0--|

| S S S S S S S S S S S S S S S S
|----------------------------------|
|----------------------------------|
|----------------------------------|
|----------------------------------|
|----------------------------------|
|-0-0-0-0-0-0-0-0-0-0-0-0-0-0-0-0--|

  S S S S S S S S S S S S S S S S   S S S S S S S S S S S S S S S S
|---------------------------------|---------------------------------|
|---------------------------------|---------------------------------|
|---------------------------------|---------------------------------|
|-0-0-0-0-0-0-0-0-0-0-0-0-0-0-0-0-|-0-0-0-0-0-0-0-0-0-0-0-0-0-0-0-0-|

| S S S S S S S S S S S S S S S S   S S S S S S S S S S S S S S S S
|---------------------------------|---------------------------------|
|---------------------------------|---------------------------------|
|---------------------------------|---------------------------------|
|---------------------------------|---------------------------------|
|---------------------------------|---------------------------------|
|-0-0-0-0-0-0-0-0-0-0-0-0-0-0-0-0-|-0-0-0-0-0-0-0-0-0-0-0-0-0-0-0-0-|

  S S S S S S S S S S S S S     S     S     S
|-------------------------------------------------|
|-------------------------------------------------|
|-------------------------------------------------|
|-0-0-0-0-0-0-0-0-0-0-0-0-0-----0-----0-----0-----|

|                         |---10----| |---10----|

| S S S S S S S S S S S S S S S   S S S S S   S S
|-------------------------------------------------|
|-------------------------------------------------|
|-------------------------------------------------|
|-------------------------------------------------|
|-------------------------------------------------|
|-0-0-0-0-0-0-0-0-0-0-0-0-9S8S7S==6S5S4S3S2S==1S0-|

  S S S S S S S S S S S S S S S S
|---------------------------------|
|---------------------------------|
|-------2-1---------1-2-4-5-4-2-1-|
|-0-2-3-----3-0-2-3---------------|

| S S S S S S S S S S S S S S S S
|---------------------------------|
|---------------------------------|
|---------------------------------|
|---------------------------------|
|-------2-1---------1-2-4-5-4-2-1-|
|-0-2-3-----3-0-2-3---------------|

  S S S S S S S S S S S S S S S S   S S S S S S S S S S S S S S S S
|---------------------------------|---------------------------------|
|---------------------------------|---------------------------------|
|-------2-1---------1-2-4-5-4-2-1-|-------2-1---------1-2-4-5-4-2-1-|
|-0-2-3-----3-0-2-3---------------|-0-2-3-----3-0-2-3---------------|

| S S S S S S S S S S S S S S S S   S S S S S S S S S S S S S S S S
|---------------------------------|---------------------------------|
|---------------------------------|---------------------------------|
|---------------------------------|---------------------------------|
|---------------------------------|---------------------------------|
|-------2-1---------1-2-4-5-4-2-1-|-------2-1---------1-2-4-5-4-2-1-|
|-0-2-3-----3-0-2-3---------------|-0-2-3-----3-0-2-3---------------|

  S S S S S S S S S S S S S S S S   S S S S S S S S S S S S S S S S
|---------------------------------|---------------------------------|
|---------------------------------|---------------------------------|
|-------2-1---------1-2-4-5-4-2-1-|---------------------------------|
|-0-2-3-----3-0-2-3---------------|-0-0-0-0-0-0-0-0-0-0-0-0-0-0-0-0-|

| S S S S S S S S S S S S S S S S   E   S E   S E   S E   S S S S S
|---------------------------------|---------------------------------|
|---------------------------------|---------------------------------|
|---------------------------------|---------------------------------|
|---------------------------------|---------------------------------|
|-------2-1---------1-2-4-5-4-2-1-|-7-----8-----5-----8-----7---5---|
|-0-2-3-----3-0-2-3---------------|-----0-----0-----0-----0---0---0-|

  S S S S S S S S  T  T  T  T  T T  T  T T T  T T T T T T
|-----------------10-11-10--------------------------------|
|--------------------------12-10-9------------------------|
|----------------------------------12-11-8-7--------------|
|-0-0-0-0-0-0-0-0----------------------------10-8-7-5-4-1-|

| E   S E   S E    H
|---------------------------------------------------------|
|---------------------------------------------------------|
|---------------------------------------------------------|
|---------------------------------------------------------|
|-7-----8-----5-------------------------------------------|
|-----0-----0---------------------------------------------|

  S S S S S S S S S S S S S S S S
|---------------------------------|
|---------------------------------|
|---------------------------------|
|-0-0-0-0-0-0-0-0-0-0-0-0-0-0-0-0-|

| E   S E   S E   S E   S S S S S
|---------------------------------|
|---------------------------------|
|---------------------------------|
|---------------------------------|
|-7-----8-----5-----8-----7---5---|
|-----0-----0-----0-----0---0---0-|

  S S S S S S S S  T  T  T  T  T T  T  T T T  T T T T T T
|-----------------10-11-10--------------------------------|
|--------------------------12-10-9------------------------|
|----------------------------------12-11-8-7--------------|
|-0-0-0-0-0-0-0-0----------------------------10-8-7-5-4-1-|

| E   S E   S E    H
|---------------------------------------------------------|
|---------------------------------------------------------|
|---------------------------------------------------------|
|---------------------------------------------------------|
|-7-----8-----5-------------------------------------------|
|-----0-----0---------------------------------------------|

  S S S S S S S S S S S S S S S S
|---------------------------------|
|---------------------------------|
|---------------------------------|
|-0-0-0-0-0-0-0-0-0-0-0-0-0-0-0-0-|

| E   S E   S E   S E   S S S S S
|---------------------------------|
|---------------------------------|
|---------------------------------|
|---------------------------------|
|-7-----8-----5-----8-----7---5---|
|-----0-----0-----0-----0---0---0-|

  S S S S S S S S  T  T  T  T  T T  T  T T T  T T T T T T
|-----------------10-11-10--------------------------------|
|--------------------------12-10-9------------------------|
|----------------------------------12-11-8-7--------------|
|-0-0-0-0-0-0-0-0----------------------------10-8-7-5-4-1-|

| E   S E   S E    H
|---------------------------------------------------------|
|---------------------------------------------------------|
|---------------------------------------------------------|
|---------------------------------------------------------|
|-7-----8-----5-------------------------------------------|
|-----0-----0---------------------------------------------|

  S S S S S S S S S S S S S S S S
|---------------------------------|
|---------------------------------|
|---------------------------------|
|-0-0-0-0-0-0-0-0-0-0-0-0-0-0-0-0-|

| E   S E   S E   S E   S S S S S
|---------------------------------|
|---------------------------------|
|---------------------------------|
|---------------------------------|
|-7-----8-----5-----8-----7---5---|
|-----0-----0-----0-----0---0---0-|

  S S S S S S S S H        E Q.   E Q.     E Q.   H
|------------------------|---------------|-------------|
|------------------------|---------------|-------------|
|------------------------|---------------|-------------|
|-0-0-0-0-0-0-0-0-0------|-0------0------|-0------0----|

|             ~~~~~~

| E   S E   S E   E Q.     E Q.   E Q.     E Q.   H
|------------------------|---------------|-------------|
|------------------------|---------------|-------------|
|------------------------|---------------|-------------|
|------------------------|---------------|-------------|
|-7-----8-----5----------|---------------|-------------|
|-----0-----0-----0------|-0------0------|-0------0----|

  +H     E Q.     H    H       +H     H      W
|---------------|------------|-------------|------*|
|---------------|------------|-------------|------*|
|---------------|------------|-------------|------*|
|-(0)----0------|-0----0-----|-(0)---------|------*|

| +H     E Q.     W            +H     H      W
|---------------|------------|-------------|------*|
|---------------|------------|-------------|------*|
|---------------|------------|-------------|------*|
|---------------|------------|-------------|------*|
|---------------|------------|-------------|------*|
|-(0)----0------|-0----------|-(0)---------|------*|

Duration Legend
---------------

W - whole; H - half; Q - quarter; E - 8th; S - 16th; T - 32nd; X - 64th; a - acciaccatura
+ - note tied to previous; . - note dotted; .. - note double dotted
Uncapitalized letters represent notes that are staccato (1/2 duration)
duration for.  Duration letters with no t number below them represent rests.  Multi-
bar rests are notated in the form Wxn, where n is the number of bars to rest for.  Low
----------------

 h   - hammer-on
 b   - bend
 pb  - pre-bend
 r   - bend release (if no number after the r, then release immediately)
 s   - legato slide
 S   - shift slide
 - natural harmonic
n  - artificial harmonic
n(n) - tapped harmonic
 ~   - vibrato
 T   - tap
 PM  - palm muting
\n/  - tremolo bar dip; n = amount to dip
 =   - hold bend; also acts as connecting device for hammers/pulls
 x   - on rhythm slash represents muted slash
Misc Legend
-----------

||o - repeat start

 &  - Coda
Tempo markers -  = BPM(8/16=s8/s16), where s8 = swing 8ths, s16 = swing 16ths
						
# Artist Title Tabdesignator