Yngwie Malmsteen

Far Beyond The Sun


							
#---------------------------------- NOTE---------------------------------#

#------------------------------------------------------------------------------#

Gtr I (Eb Ab Db Gb) - 'Bass'
Gtr II (Eb Ab Db Gb Bb Eb) - 'Synth'
Gtr III (Eb Ab Db Gb Bb Eb) - 'Strings'
                  Intro
  Moderate Rock Q=162
 4/4

          |-3-|             |-3-|            |-3-|       |-3-|     |-3-|

  H    Q  E E E     H.      E E E    H.      E E E    Q  E E E  Q  E E E
|---------------||----------------|----------------|-----------------------|
|---------------||----------------|----------------|-----------------6-8---|
|---------5-5-5-||--4-------8-8-8-|--9-------9-9-9-|--8--8-8-8--9--9-------|
|---------------||----------------|----------------|-----------------------|

| W                 H.      Q        H.      Q        Q  Q      Q  Q
|---------------||-16-------------|-17-------------|-19--------18----------|
|---------------||-18-------------|-19-------------|-21--------19----------|
|---------------||-18-------------|-18-------------|-23--------18----------|
|---------------||----------------|----------------|-23--------------------|
|---------------||----------------|----------------|-----------------------|
|---------------||----------------|----------------|-----------------------|

                                                                     To Coda
           |-3-|       |-3-|     |-3-|       |-3-|     |-3-|    |-3-| |-3-|

   H.      E E E    Q  E E E  Q  E E E    Q  E E E  Q  E E E    Q Q Q Q Q Q
|----------------|---------------------|---------------------|----------------|
|--9-------------|---------6--7--------|------------6--------|--6-3-----------|
|----------9-9-9-|--7--7-9-------9-7-5-|--5--5-7-9-----5-5-5-|------5-2-------|
|----------------|---------------------|---------------------|----------4-1---|

|  H.      Q        Q  Q      Q  Q        Q  Q      Q  Q        W
|-23-------------|-19--------21--------|-17--------19--------|-16-------------|
|-24-------------|-21--------22--------|-19--------21--------|-18-------------|
|-23-------------|-21--------21--------|-19--------19--------|-19-------------|
|----------------|---------------------|---------------------|----------------|
|----------------|---------------------|---------------------|----------------|
|----------------|---------------------|---------------------|----------------|

                                                    C#    F#5
   |-3-| |-3-|  |-3-| |-3-|

   E E E E E E  E E E E E E    Q  Q  H      H    Q  Q     Q  Q  H
|---------------------------|-------------|------------||------------||
|---------------------------|-------------|------------||-4----------||
|--------2-4-5--4-2---------|-------------|---------4--||------------||
|--2-4-5------------5-4-2-1-|--2----------|------------||------------||

|  Q     Q      Q     Q        Q  Q  H      H    Q  Q     Q  Q  H
|-21-----------21-----------|-17----------|------------||------------||
|-22-----------21-----------|-19----------|---------6--||-7----------||
|-23-----------21-----------|-18----------|---------6--||-6----------||
|---------------------------|-------------|------------||-4----------||
|---------------------------|-------------|---------4--||------------||
|---------------------------|-------------|------------||------------||

        C#    F#5                 C#    D                   C#
 3/4         4/4           3/4         4/4           3/4

  Q  Q  Q     Q  Q  H       Q  Q  Q     Q  Q  H       Q  Q  Q
|----------||------------||----------||------------||-----------||
|----------||-4----------||----------||------------||-----------||
|-------4--||------------||-------4--||-5----------||-------4---||
|----------||------------||----------||------------||-----------||

| H     Q     Q  Q  H       H     Q     Q  Q  H       H     Q
|----------||------------||----------||------------||-----------||
|-------6--||-7----------||-------6--||-7----------||-------6---||
|-------6--||-6----------||-------6--||-7----------||-------6---||
|----------||-4----------||----------||------------||-----------||
|-------4--||------------||-------4--||-5----------||-------4---||
|----------||------------||----------||------------||-----------||

  F#5                 C#     F#5
 4/4           3/4          4/4
                             |3| |-3-| |3| |-3-|   |3| |-3-| |3| |-3-|

  Q  Q  H       Q  Q  Q      Q E E E E Q E E E E   Q E E E E Q E E E E
|------------||----------||----------------------|---------------------|
|------------||----------||o-4-4-4-4-4-4-4-4-4-4-|-4-4-4-4-4-4-4-4-4-4-|
|------------||-------4--||o---------------------|---------------------|
|-2----------||----------||----------------------|---------------------|

| Q  Q  H       H     Q      W                     W
|-2----------||----------||--2-------------------|-2-------------------|
|-2----------||-------6--||o-2-------------------|-2-------------------|
|------------||-------6--||----------------------|---------------------|
|-4----------||----------||--4-------------------|-4-------------------|
|------------||-------4--||o---------------------|---------------------|
|-2----------||----------||--2-------------------|-2-------------------|

  E
  |3| |-3-| |3| |-3-|   |3| |-3-| |3| |-3-|

  Q E E E E Q E E E E   Q E E E E Q E E E E
|---------------------|---------------------|
|-2-2-2-2-2-2-2-2-2-2-|-2-2-2-2-2-2-2-2-2-2-|
|---------------------|---------------------|
|---------------------|---------------------|

|-4-------------------|-4-------------------|
|-5-------------------|-5-------------------|
|-4-------------------|-4-------------------|
|-6-------------------|-6-------------------|
|-7-------------------|-7-------------------|
|---------------------|---------------------|

  D
  |3| |-3-| |3| |-3-|   |3| |-3-| |3| |-3-|

  Q E E E E Q E E E E   Q E E E E Q E E E E
|---------------------|---------------------|
|---------------------|---------------------|
|-5-5-5-5-5-5-5-5-5-5-|-5-5-5-5-5-5-5-5-5-5-|
|---------------------|---------------------|

|-2-------------------|-2-------------------|
|-3-------------------|-3-------------------|
|-2-------------------|-2-------------------|
|-4-------------------|-0-------------------|
|-5-------------------|---------------------|
|---------------------|---------------------|

  C#
                                   |3| |-3-| |3| |-3-|   |3| |-3-| |3| |-3-|

  Q  Q  H      H    Q  Q           Q E E E E Q E E E E   Q E E E E Q E E E E
|------------|--------------||-||----------------------|---------------------|
|------------|-------------o||-||o---------------------|---------------------|
|-4----------|---------4\--o||-||o-2-2-2-2-2-2-2-0-----|---------------------|
|------------|--------------||-||------------------4-2-|-1-1-1-1-1-1-1-1-2-4-|

| Q  Q  H      W                   W                     W
|-4----------|--------------||-||----------------------|---------------------|
|-6----------|-------------o||-||o---------------------|---------------------|
|-6----------|--------------||-||----------------------|---------------------|
|-6----------|--------------||-||----------------------|---------------------|
|-4----------|-------------o||-||o---------------------|---------------------|
|------------|--------------||-||----------------------|---------------------|

  |3| |-3-| |3| |-3-|   |3| |-3-| |3| |-3-|

  Q E E E E Q E E E E   Q E E E E Q E E E E
|---------------------|---------------------|
|---------------------|---------------------|
|-------------------2-|---------------------|
|-2-2-2-4-5-3-3-3-5---|-5-5-5-5-5-5-5-5-5-5-|

  |3| |-3-| |3| |-3-|   |3| |-3-| |3| |-3-|

  Q E E E E Q E E E E   Q E E E E Q E E E E
|---------------------|---------------------|
|---------------------|---------------------|
|-2-2-2-2-2-2-2-0-----|---------------------|
|-----------------4-2-|-1-1-1-1-1-1-1-1-1-1-|

                                    F#m
               |-3-|                |3| |-3-| |3| |-3-|   |3| |-3-| |3| |-3-|

  Q  Q  H      Q Q Q Q  Q           Q E E E E Q E E E E   Q E E E E Q E E E E
|------------|---------------||-||----------------------|---------------------|
|------------|-4-----4------o||-||o-4-4-4-4-4-4-4-4-4-4-|-4-4-4-4-4-4-4-4-4-4-|
|------------|---4-0--------o||-||o---------------------|---------------------|
|-2----------|---------------||-||----------------------|---------------------|

| W            W                    W                     W
|------------|---------------||-||--2-------------------|-2-------------------|
|------------|--------------o||-||o-2-------------------|-2-------------------|
|------------|---------------||-||--2-------------------|-2-------------------|
|------------|---------------||-||--4-------------------|-4-------------------|
|------------|--------------o||-||o---------------------|---------------------|
|------------|---------------||-||--2-------------------|-2-------------------|

                            F#m
  |-3-| |-3-| |-3-| |-3-|   |3| |-3-| |3| |-3-|

  E E E E E E E E E E E E   Q E E E E Q E E E E
|-2-2-2-0-0-0-------------|---------------------|
|-------------4-4-4-3-3-3-|-4-4-4-4-4-4-4-4-4-4-|
|-------------------------|---------------------|
|-------------------------|---------------------|

|-2-----------------------|-5-------------------|
|-------------------------|-7-------------------|
|-2-----------------------|-6-------------------|
|-4-----------------------|-7-------------------|
|-------------------------|-9-------------------|
|-2-----------------------|-2-------------------|

  E                 D/A
  |3| |-3-|         |3| |-3-| |3| |-3-|

  Q E E E E Q  Q    Q E E E E Q E E E E
|-----------------|------------------------||
|-2-2-2-2-2S4--2--|-----------------------o||
|-----------------|-5-5-5-5-5-5-5-5-5-5---o||
|-----------------|------------------------||

|-7---------------|-5----------------------||
|-9---------------|-7---------------------o||
|-9---------------|-7----------------------||
|-9---------------|-4----------------------||
|-7---------------|-0---------------------o||
|-----------------|------------------------||

  C#                     F#m
   |3| |-3-| |3| |-3-|    |3| |-3-| |3| |-3-|

   Q E E E E Q E E E E    Q E E E E Q E E E E
|----------------------|----------------------|
|----------------------|--4-4-4-4-4-4-4-4-4-4-|
|--4-4-4-4-4-4-4-4-4-4-|----------------------|
|----------------------|----------------------|

|-13-------------------|-14-------------------|
|-14-------------------|-14-------------------|
|-13-------------------|-14-------------------|
|-15-------------------|-16-------------------|
|-16-------------------|-16-------------------|
|----------------------|-14-------------------|

   |3| |-3-| |3| |-3-|    |3| |-3-|  |3| |-3-|

   Q E E E E Q E E E E    Q E E E E  Q E E E E
|----------------------|--2-2-2-2-2--3-3-3-3-3-|
|--2-2-2-2-2-2-2-2-2-2-|-----------------------|
|----------------------|-----------------------|
|----------------------|-----------------------|

|  W                      H          H
|-12-------------------|--9----------9---------|
|-12-------------------|-10---------11---------|
|----------------------|--9----------9---------|
|-14-------------------|-11----------8---------|
|-14-------------------|-12--------------------|
|----------------------|-----------------------|

  D          E            A          D
   |3| |-3-|  |3| |-3-|    |3| |-3-|  |3| |-3-|

   Q E E E E  Q E E E E    Q E E E E  Q E E E E
|--4-4-4-4-4------------|--2-2-2-2-2S=7-7-7-7-7-|
|-------------2-2-2-2-2-|-----------------------|
|-----------------------|-----------------------|
|-----------------------|-----------------------|

|  H          H            H          H
|-10---------12---------|-----------------------|
|------------12---------|-10---------10---------|
|-11---------13---------|--9---------11---------|
|-12---------14---------|-11---------12---------|
|-----------------------|-12----------9---------|
|-----------------------|------------10---------|

                                  D.S. al Coda
  B/Eb                  C
  |3| |-3-| |3| |-3-|    |3-| |-3-| |3| |-3-|

  Q E E E E Q E E E E    Q  E E E E E Q E E E
|-4-4-4-4-4-4-4-4-4-4-|--5--5-5-5-5-5------------||
|---------------------|--------------------------||
|---------------------|-----------------5-5-5----||
|---------------------|--------------------------||

|-7-------------------|--8-----------------------||
|-7-------------------|--8-----------------------||
|-8-------------------|--9-----------------------||
|---------------------|-10-----------------------||
|---------------------|--------------------------||
|---------------------|--------------------------||

  |-3-| |-3-| |-3-| |-3-|   |-3-| |-3-| |-3-| |-3-|

  E E E E E E E E E E E E   E E E E E E E E E E E E
|-------------------------|-------------------------|
|-------------------------|-------------------------|
|-------2-4-5-4-2---------|-------2-4-5-4-2---------|
|-2-4-5-----------5-4-2-1-|-2-4-5-----------5-4-2-1-|

  |-3-| |-3-| |-3-| |-3-|   |-3-| |-3-|

  E E E E E E E E E E E E   E E E E E E H
|-------------------------|------------------||
|-------------------------|------------------||
|-------2-4-5-4-2---------|-------2-4-5------||
|-2-4-5-----------5-4-2-1-|-2-4-5------------||

  Bm        E           A         D
  |3| |-3-| |3| |-3-|   |3| |-3-| |3| |-3-|

  Q E E E E Q E E E E   Q E E E E Q E E E E
|---------------------|---------------------|
|---------------------|-----------0-0-0-0-0-|
|-2-2-2-2-2-----------|-0-0-0-0-0-----------|
|-----------0-0-0-0-0-|---------------------|

| H         H           H         H
|-7-------------------|-5---------5---------|
|-7---------9---------|-5---------7---------|
|-7---------9---------|-6---------7---------|
|-9---------9---------|-7-------------------|
|-----------7---------|-----------5---------|
|---------------------|---------------------|

  B/Eb                   C#
   |3| |-3-| |3| |-3-|    |3| |-3-| |3| |-3-|

   Q E E E E Q E E E E    Q E E E E Q E E E E
|----------------------|----------------------|
|--1-1-1-1-1-1-1-1-1-1-|--2-2-2-2-2-2-2-2-2-2-|
|----------------------|----------------------|
|----------------------|----------------------|

|-11-------------------|--9-------------------|
|--7-------------------|--9-------------------|
|--8-------------------|-10-------------------|
|--9-------------------|-11-------------------|
|--9-------------------|-11-------------------|
|-11-------------------|--9-------------------|

  F#m
   |3| |-3-| |3| |-3-|    |3| |-3-| |3| |-3-|

   Q E E E E Q E E E E    Q E E E E Q E E E E
|----------------------|----------------------|
|--4-4-4-4-4-4-4-4-4-4-|--4-4-4-4-4-4-4-4-4-4-|
|----------------------|----------------------|
|----------------------|----------------------|

|----------------------|----------------------|
|-10-------------------|-10-------------------|
|-11-------------------|-11-------------------|
|-11-------------------|-11-------------------|
|--9-------------------|--9-------------------|
|----------------------|----------------------|

   |3| |-3-| |3| |-3-|   |3| |-3-| |3| |-3-|

   Q E E E E Q E E E E   Q E E E E Q E E E E
|----------------------|---------------------||
|--4-4-4-4-4-----------|-----------0-0-3-3-3-||
|----------------------|-2-2-4-4-4-----------||
|------------4-4-4-4-4-|---------------------||

|  W                     Q   Q     Q   Q
|----------------------|---------------------||
|-10-------------------|---------------------||
|-11-------------------|-----6-----7---9-----||
|-11-------------------|-9-------------------||
|--9-------------------|-9-------------------||
|----------------------|---------------------||

    F#m                            E
    |3| |-3-|        |3| |-3-|  |3-|

    Q E E E E H      Q E E E E  Q  E +Q
||-----------------|----------------------|
||o-4-4-4-4-4-4----|-4-4-4-4-4--4--2-(2)--|
||o----------------|----------------------|
||-----------------|----------------------|

|                               |3-|

|   W                H         +Q  E +Q
||-----------------|----------------------|
||o-7--------------|-7---------(7)-9-(9)--|
||--6--------------|-6---------(6)-9-(9)--|
||--7--------------|-7---------(7)-9-(9)--|
||o-9--------------|-9---------(9)-7-(7)--|
||-----------------|----------------------|

  D/F#                   C#/F#    C#+sus4C#
  |3| |-3-|        |-3-|           |-3-|  |-3-|

  Q E E E E H      Q Q Q H         Q Q Q  Q Q Q
|----------------|-------------||----------------|
|----------------|-4-3-0------o||--4-2-0----0-3--|
|-5-5-5-5-5-5----|-------4----o||---------4------|
|----------------|-------------||----------------|

| W                H     H         H      H
|-5--------------|-5-----4-----||----------------|
|-7--------------|-7-----6----o||-10------9------|
|-7--------------|-7-----6-----||-11-----10------|
|-4--------------|-4-----4-----||-11-----11------|
|----------------|------------o||----------------|
|----------------|-------------||----------------|

  C#+sus4C#        C#+sus4C#        F#m
   |-3-|  |-3-|     |-3-|  |-3-|     |-3-| |-3-|

   Q Q Q  Q Q Q     Q Q Q  Q Q Q     Q Q Q Q Q Q
|----------------|----------------|--------4-6-7---||
|--4-2-0----0-3--|--4-2-0----0-3--|--4-6-7---------||
|---------4------|---------4------|----------------||
|----------------|----------------|----------------||

|  H      H         H      H         W
|----------------|----------------|----------------||
|-10------9------|-10------9------|-10-------------||
|-11-----10------|-11-----10------|-11-------------||
|-11-----11------|-11-----11------|-11-------------||
|----------------|----------------|--9-------------||
|----------------|----------------|----------------||

 Guitar Solo I
  C#
   |3| |-3-| |3| |-3-|    |-3-| |-3-|

   Q E E E E Q E E E E    Q Q Q Q Q Q
|----------------------|-----------------|
|----------------------|--0-----4-0-3----|
|--4-4-4-4-4-4-4-4-4-4-|----2-4----------|
|----------------------|-----------------|

|----------------------|-----------------|
|--9-------------------|--9--------------|
|-10-------------------|-10--------------|
|-11-------------------|-11--------------|
|----------------------|-----------------|
|--9-------------------|--9--------------|

                         C#
   |3| |-3-| |3| |-3-|    |-3-| |-3-|

   Q E E E E Q E E E E    Q Q Q Q Q Q
|----------------------|----------------|
|----------------------|--0-----4-0-3---|
|--4-4-4-4-4-4-4-4-4-4-|----2-4---------|
|----------------------|----------------|

|----------------------|----------------|
|--9-------------------|----------------|
|-10-------------------|-10-------------|
|-11-------------------|-11-------------|
|----------------------|-11-------------|
|--9-------------------|----------------|

   |3| |-3-| |3| |-3-|    |-3-| |-3-|

   Q E E E E Q E E E E    Q Q Q Q Q Q
|----------------------|-----------------|
|----------------------|--0-----4-0-3----|
|--4-4-4-4-4-4-4-4-4-4-|----2-4----------|
|----------------------|-----------------|

|----------------------|-----------------|
|----------------------|--9--------------|
|-10-------------------|-10--------------|
|-11-------------------|-11--------------|
|-11-------------------|-----------------|
|----------------------|-----------------|

   |3| |-3-| |3| |-3-|    |-3-| |-3-|

   Q E E E E Q E E E E    Q Q Q Q Q Q
|----------------------|----------------|
|----------------------|--0-----4-0-3---|
|--4-4-4-4-4-4-4-4-4-4-|----2-4---------|
|----------------------|----------------|

|----------------------|----------------|
|----------------------|----------------|
|-10-------------------|-10-------------|
|-11-------------------|-11-------------|
|-11-------------------|-11-------------|
|----------------------|--9-------------|

   |3| |-3-| |3| |-3-|    |-3-| |-3-|

   Q E E E E Q E E E E    Q Q Q Q Q Q
|----------------------|-----------------|
|----------------------|--0-----4-0-3----|
|--4-4-4-4-4-4-4-4-4-4-|----2-4----------|
|----------------------|-----------------|

|----------------------|--9--------------|
|--9-------------------|--9--------------|
|-10-------------------|-10--------------|
|-11-------------------|-11--------------|
|----------------------|-----------------|
|----------------------|-----------------|

   |3| |-3-| |3| |-3-|    |-3-| |-3-|

   Q E E E E Q E E E E    Q Q Q Q Q Q
|----------------------|----------------|
|----------------------|--0-----4-0-3---|
|--4-4-4-4-4-4-4-4-4-4-|----2-4---------|
|----------------------|----------------|

|----------------------|----------------|
|----------------------|--9-------------|
|-10-------------------|-10-------------|
|-11-------------------|-11-------------|
|-11-------------------|----------------|
|----------------------|----------------|

   |3| |-3-| |3| |-3-|    |-3-| |-3-|

   Q E E E E Q E E E E    Q Q Q Q Q Q
|----------------------|-----------------|
|----------------------|--0-----4-0-3----|
|--4-4-4-4-4-4-4-4-4-4-|----2-4----------|
|----------------------|-----------------|

|----------------------|--9--------------|
|--9-------------------|--9--------------|
|-10-------------------|-10--------------|
|-11-------------------|-----------------|
|-11-------------------|-----------------|
|----------------------|-----------------|

                         E#m
   |3| |-3-| |3| |-3-|    |-3-| |-3-|

   Q E E E E Q E E E E    Q Q Q Q Q Q
|----------------------|----------------||
|----------------------|--0-----4-0-3---||
|--4-4-4-4-4-4-4-4-4-4-|----2-4---------||
|----------------------|----------------||

|----------------------|----------------||
|----------------------|--9-------------||
|-10-------------------|-10-------------||
|-11-------------------|----------------||
|-11-------------------|----------------||
|--9-------------------|----------------||

 Synth Solo I
  D#5
  |3| |-3-| |3| |-3-|   |-3-| |-3-| |-3-| |-3-|

  Q E E E E Q E E E E   E E E E E E E E E E E E
|---------------------|-------------------------|
|-1-1-1-1-1-1-1-1-1-1-|-2-1---1-----------------|
|---------------------|-----4---4-2-4-2-1-2-1---|
|---------------------|-----------------------4-|

|---------------------|-------------------------|
|---------------------|-------------------------|
|-8-------------------|-------------------------|
|-8-------------------|-------------------------|
|-6-------------------|-------------------------|
|---------------------|-------------------------|

  |3| |-3-| |3| |-3-|   |-3-| |-3-| |-3-| |-3-|

  Q E E E E Q E E E E   E E E E E E E E E E E E
|---------------------|-------------------------|
|-1-1-1-1-1-1-1-1-1-1-|-2-1---1-----------------|
|---------------------|-----4---4-2-4-2-1-2-1---|
|---------------------|-----------------------4-|

  |3| |-3-| |3| |-3-|   |-3-| |-3-| |-3-| |-3-|

  Q E E E E Q E E E E   E E E E E E E E E E E E
|---------------------|---------------------------|
|-1-1-1-1-1-1-1-1-1-1-|-2-1---1-------------------|
|---------------------|-----4---4-2-4-2-1-2-1-----|
|---------------------|-----------------------4---|

  |3| |-3-| |3| |-3-|   |-3-| |-3-| |-3-| |-3-|

  Q E E E E Q E E E E   E E E E E E E E E E E E
|---------------------|-------------------------|
|-1-1-1-1-1-1-1-1-1-1-|-2-1---1-----------------|
|---------------------|-----4---4-2-4-2-1-2-1---|
|---------------------|-----------------------4-|

  |3| |-3-| |3| |-3-|   |-3-| |-3-| |-3-| |-3-|

  Q E E E E Q E E E E   E E E E E E E E E E E E
|---------------------|---------------------------|
|-1-1-1-1-1-1-1-1-1-1-|-2-1---1-------------------|
|---------------------|-----4---4-2-4-2-1-2-1-----|
|---------------------|-----------------------4---|

  |3| |-3-| |3| |-3-|   |-3-| |-3-| |-3-| |-3-|

  Q E E E E Q E E E E   E E E E E E E E E E E E
|---------------------|-------------------------|
|-1-1-1-1-1-1-1-1-1-1-|-2-1---1-----------------|
|---------------------|-----4---4-2-4-2-1-2-1---|
|---------------------|-----------------------4-|

  |3| |-3-| |3| |-3-|   |-3-| |-3-| |-3-| |-3-|

  Q E E E E Q E E E E   E E E E E E E E E E E E
|---------------------|---------------------------|
|-1-1-1-1-1-1-1-1-1-1-|-2-1---1-------------------|
|---------------------|-----4---4-2-4-2-1-2-1-----|
|---------------------|-----------------------4---|

  |3| |-3-| |3| |-3-|   |-3-| |-3-| |-3-| |-3-|

  Q E E E E Q E E E E   E E E E E E E E E E E E
|---------------------|-------------------------|
|-1-1-1-1-1-1-1-1-1-1-|-2-1---1-----------------|
|---------------------|-----4---4-2-4-2-1-2-1---|
|---------------------|-----------------------4-|

             Guitar Solo II
              |3| |-3-| |3| |-3-|   |-3-| |-3-|

  W           Q E E E E Q E E E E   Q Q Q Q Q Q
|----------||---------------------|----------------|
|----------||---------------------|----------------|
|----------||---------------------|-0-----4-0-3----|
|----------||-4-4-4-4-4-4-4-4-4-4-|---2-4----------|

                                      Synth Solo II
  |3| |-3-| |3| |-3-|   |-3-| |-3-|    |3| |-3-| |3| |-3-|   |-3-| |-3-|

  Q E E E E Q E E E E   Q Q Q Q Q Q    Q E E E E Q E E E E   Q Q Q Q Q Q
|---------------------|-------------||---------------------|--------------|
|---------------------|-------------||---------------------|--------------|
|---------------------|-0-----4-0-3-||---------------------|-0-----4-0-3--|
|-4-4-4-4-4-4-4-4-4-4-|---2-4-------||-4-4-4-4-4-4-4-4-4-4-|---2-4--------|

                                      Guitar Solo III
  |3| |-3-| |3| |-3-|   |-3-| |-3-|    |3| |-3-| |3| |-3-|   |-3-| |-3-|

  Q E E E E Q E E E E   Q Q Q Q Q Q    Q E E E E Q E E E E   Q Q Q Q Q Q
|---------------------|-------------||---------------------|--------------|
|---------------------|-------------||---------------------|--------------|
|---------------------|-0-----4-0-3-||---------------------|-0-----4-0-3--|
|-4-4-4-4-4-4-4-4-4-4-|---2-4-------||-4-4-4-4-4-4-4-4-4-4-|---2-4--------|

                                      Synth Solo III
  |3| |-3-| |3| |-3-|   |-3-| |-3-|    |3| |-3-| |3| |-3-|   |-3-| |-3-|

  Q E E E E Q E E E E   Q Q Q Q Q Q    Q E E E E Q E E E E   Q Q Q Q Q Q
|---------------------|-------------||---------------------|--------------|
|---------------------|-------------||---------------------|--------------|
|---------------------|-0-----4-0-3-||---------------------|-0-----4-0-3--|
|-4-4-4-4-4-4-4-4-4-4-|---2-4-------||-4-4-4-4-4-4-4-4-4-4-|---2-4--------|

  |3| |-3-| |3| |-3-|   |-3-| |-3-|   |-3-| |-3-|   |-3-| |-3-|   |-3-| |-3-|

  Q E E E E Q E E E E   Q Q Q Q Q Q   Q Q Q Q Q Q   Q Q Q Q Q Q   Q Q Q Q Q Q
|---------------------|-------------|-------------|-------------|-------------||
|---------------------|-------------|-------------|-------------|-------------||
|---------------------|-0-----4-0-3-|-0-----4-0-3-|-0-----4-0-3-|-0-----4-0-3-||
|-4-4-4-4-4-4-4-4-4-4-|---2-4-------|---2-4-------|---2-4-------|---2-4-------||

   Guitar Solo IV
    |-3-| |-3-|         |3| |-3-| |3| |-3-|

    E E E E E E Q  Q    Q E E E E Q E E E E
||--------------------|---------------------|
||o-------------------|---------------------|
||o-4-4-4-4-4-4-4-----|---------------------|
||-----------------7--|-5-5-5-5-5-5-5-5-5-5-|

  |3| |-3-| |-3-| |-3-|   |3| |-3-|

  Q E E E E E E E E E E   Q E E E E Q  Q
|-----------------------|--------------------||
|-----------------------|-------------------o||
|-----------------------|-2-2-2-2-2-2-------o||
|-0-0-0-0-0-4-4-5-5-6-6-|--------------4-----||

                         C
  |3| |-3-| |3| |-3-|    |3| |-3-| |3| |-3-|

  Q E E E E Q E E E E    Q E E E E Q E E E E
|---------------------||---------------------|
|---------------------||---------------------|
|-2-2-2-2-2-2-2-2-2-2-||-3-3-3-3-3-3-3-3-3-3-|
|---------------------||---------------------|

|---------------------||---------------------|
|---------------------||-5-------------------|
|---------------------||-5-------------------|
|---------------------||-2-------------------|
|---------------------||-3-------------------|
|---------------------||---------------------|

  C#m                   B
  |3| |-3-| |3| |-3-|   |3| |-3-| |3| |-3-|

  Q E E E E Q E E E E   Q E E E E Q E E E E
|---------------------|---------------------|
|---------------------|---------------------|
|-4-4-4-4-4-4-4-4-4-4-|-2-2-2-2-2-2-2-2-2-2-|
|---------------------|---------------------|

|---------------------|-2-------------------|
|-5-------------------|-4-------------------|
|-6-------------------|---------------------|
|-6-------------------|-1-------------------|
|-4-------------------|-2-------------------|
|---------------------|---------------------|

  Bsus4     C           F#sus4    B
  |3| |-3-| |3| |-3-|   |3| |-3-| |3| |-3-|

  Q E E E E Q E E E E   Q E E E E Q E E E E
|---------------------|---------------------|
|-2-2-2-2-2-3-3-4-4-4-|-4-4-4-4-4-----------|
|---------------------|-----------2-2-2-2-2-|
|---------------------|---------------------|

| H         H           H         H
|-7---------7---------|-7---------7---------|
|-5---------6---------|-7-------------------|
|---------------------|-----------8---------|
|---------------------|-9---------9---------|
|-7---------8---------|-9-------------------|
|-7---------7---------|-----------7---------|

  E         A           F#m
  |3| |-3-| |3| |-3-|   |3| |-3-| |3| |-3-|

  Q E E E E Q E E E E   Q E E E E Q E E E E
|---------------------|---------------------|
|-2-2-2-2-2-----------|---------------------|
|-----------0-0-0-0-0-|---------------------|
|---------------------|-2-2-2-2-2-2-2-2-2-2-|

| H         H           W
|-7---------5---------|-5-------------------|
|-9-------------------|-2-------------------|
|-9-------------------|---------------------|
|-6---------7---------|-4-------------------|
|-7---------4---------|-4-------------------|
|-----------5---------|-2-------------------|

  G#/C                     C#m
   |3| |-3-| |3| |-3-|

   Q E E E E Q E E E E     Q  Q  H
|----------------------||-------------|
|----------------------||o------------|
|----------------------||o-4----------|
|--4-4-4-4-4-4-4-4-4-4-||-------------|

|  W                       Q  Q  H
|--8-------------------||-------------|
|--9-------------------||o------------|
|--8-------------------||--6----------|
|-10-------------------||--6----------|
|-11-------------------||o-7----------|
|--8-------------------||--9----------|

         B        A
       |3|                          |3|

  H    Q E +Q     Q  Q  H      H    Q E +Q
|---------------|------------|---------------|
|---------------|------------|---------------|
|--------2-(2)--|-0----------|--------2-(2)--|
|---------------|------------|---------------|

|      |3|

| H    Q E +Q     Q  Q  H      W
|---------------|------------|---------------|
|---------------|------------|---------------|
|---------------|-6----------|---------------|
|--------9-(9)--|-7----------|---------------|
|---------------|-4----------|---------------|
|--------7-(7)--|-5----------|---------------|

                    |3|

  Q  Q  H      H    Q E +Q     Q  Q  H
|------------|---------------|------------|
|------------|---------------|------------|
|-4----------|---------------|------------|
|------------|--------5-(5)--|-4----------|

| W            W               W
|------------|---------------|------------|
|------------|---------------|------------|
|------------|---------------|------------|
|------------|---------------|------------|
|------------|---------------|------------|
|------------|---------------|------------|

       |3|

  H    Q E +Q     Q  Q  H      Q  Q  H
|---------------|------------|------------|
|---------------|------------|------------|
|---------------|------------|------------|
|--------3-(3)--|-4----------|-3----------|

|      |3|

| H    Q E +Q     Q  Q  H      Q  Q  H
|--------3-(3)--|-4----------|-3----------|
|---------------|------------|------------|
|--------0-(0)--|-5----------|-0----------|
|--------0-(0)--|-6----------|-0----------|
|---------------|-6----------|------------|
|--------3-(3)--|------------|-3----------|

  G#
  |3| |-3-| |3|        |3| |-3-| |3|

  Q E E E E Q E +Q     Q E E E E Q E +Q
|--------------------|---------------------||
|--------------------|--------------------o||
|--------------------|--------------------o||
|-4-4-4-4-4-4-4-(4)--|-4-4-4-4-4-4-4-(4)---||

|-4------------------|-4-------------------||
|-4------------------|-4------------------o||
|-5------------------|---------------------||
|-6------------------|-6-------------------||
|-6------------------|-6------------------o||
|-4------------------|-4-------------------||

  |3| |-3-| |3| |-3-|   |3| |-3-| |3| |-3-|

  Q E E E E Q E E E E   Q E E E E Q E E E E
|---------------------|-----------------------|
|---------------------|-----------------------|
|---------------------|-----------------------|
|-4-4-4-4-4-4-4-4-4-4-|-4-4-4-4-4-4-4-4-4-4---|

|-4-------------------|-4---------------------|
|---------------------|-----------------------|
|-5-------------------|-5---------------------|
|-6-------------------|-6---------------------|
|-6-------------------|-6---------------------|
|-4-------------------|-4---------------------|

  |-3-| |-3-|     |-3-| |3|       |3| |-3-| |3| |-3-|    |3| |-3-| |3| |-3-|

  Q Q Q Q Q Q     Q Q Q Q H       Q E E E E Q E E E E    Q E E E E Q E E E E
|-----------3---|--------------|----------------------|-----------------------|
|-------2-5-----|-5-2----------|----------------------|-----------------------|
|---1-4---------|-----4-1------|----------------------|-----------------------|
|-3-------------|---------3----|--4-4-4-4-4-4-4-4-4-4-|--4-4-4-4-4-4-4-4-4-4--|

| W               W               W                      W
|---------------|--------------|-11-------------------|-11--------------------|
|---------------|--------------|--9-------------------|--9--------------------|
|---------------|--------------|--8-------------------|-----------------------|
|---------------|--------------|-10-------------------|-10--------------------|
|---------------|--------------|-11-------------------|-11--------------------|
|---------------|--------------|--4-------------------|--4--------------------|

  G#5
   |3| |-3-| |3| |-3-|    |-3-| |-3-|

   Q E E E E Q E E E E    E E E E E E H
|----------------------|-------------------|
|----------------------|-------------------|
|----------------------|-------------------|
|--4-4-4-4-4-4-4-4-4-4-|--4-4-4-4-4-4------|

|-16-------------------|-16----------------|
|-16-------------------|-16----------------|
|-13-------------------|-13----------------|
|----------------------|-------------------|
|-11-------------------|-11----------------|
|--4-------------------|--4----------------|

                                         B
     |3| |-3-| |3| |-3-|    |3| |-3-|  |3|

     Q E E E E Q E E E E    Q E E E E  Q E +Q
||-----------------------|-----------------------|
||o----------------------|-----------------------|
||o--4-4-4-4-4-4-4-4-4-4-|--4-4-4-4-4--4-4-(4)---|
||-----------------------|-----------------------|

|                                      |3|

|    W                      H          Q E +Q
||---9-------------------|--9----------9---------|
||o--9-------------------|--9----------9---------|
||-----------------------|--9----------9-8-(8)---|
||--11-------------------|-11---------11-9-(9)---|
||o-11-------------------|---------------9-(9)---|
||---9-------------------|--9----------9-7-(7)---|

  |3| |-3-|        |-3-| |-3-|

  Q E E E E H      Q Q Q Q Q Q   4x
|----------------|---------------||
|----------------|--------------o||
|-0-0-0-0-0-0----|-4-3-0---0-2--o||
|----------------|-------4-------||

| W                H     H       4x
|-5--------------|-------4-------||
|-5--------------|--------------o||
|----------------|---------------||
|-7--------------|-------6-------||
|----------------|-------6------o||
|-5--------------|-------4-------||

                                      C#m      G#/F
  |-3-| |-3-|

  Q Q Q Q Q Q      Q  Q  Q  Q    H     Q   +E  E
|---------------||-------------|-------------------|
|---------------||----0--2--4--|-------------------|
|-4-3-0---0-3---||-4-----------|-------4---(4)-3---|
|-------4-------||-------------|-------------------|

| W                W             H     Q   +E  E
|---------------||-------------|-------9---(9)-4---|
|---------------||-------------|-------9---(9)-4---|
|---------------||-------------|-------9---(9)-1---|
|---------------||-------------|------11--(11)-----|
|---------------||-------------|---------------3---|
|---------------||-------------|-------9---(9)-1---|

              G#7        C#m/E                       C#m    B       Bsus4
                          |-3-| |-3-|

  +Q   Q  +E   E  +Q      Q Q Q Q Q Q     W           Q  Q  Q  Q     W
|----------------------|----------------|----------|--------------|-------*|
|----------------------|------6---4-----|----------|--------------|-------*|
|-(3)--4--(4)----------|--4-7---7---7---|----------|--4-----2-----|--7----*|
|--------------4--(4)--|----------------|----------|--------------|--0----*|

| +Q   Q  +E   E  +Q      W               W           Q  Q  Q  Q     W
|-(4)--4--(4)--8--(8)--|--9-------------|----------|--9-----7-----|-12----*|
|-(4)--5--(5)--9--(9)--|--9-------------|----------|--9-----7-----|-12----*|
|-(1)--6--(6)-11-(11)--|--9-------------|----------|--9-----8-----|--9----*|
|--------------4--(4)--|-11-------------|----------|-11-----9-----|--9----*|
|-(3)----------3--(3)--|-11-------------|----------|-11-----9-----|--7----*|
|-(1)--4--(4)--4--(4)--|-12-------------|----------|--9-----7-----|--7----*|

|  W                      W               W           W              W
|----------------------|----------------|----------|--------------|-19----*|
|----------------------|----------------|----------|--------------|-21----*|
|----------------------|----------------|----------|--------------|-21----*|
|----------------------|----------------|----------|--------------|-------*|
|----------------------|----------------|----------|--------------|-------*|
|----------------------|----------------|----------|--------------|-------*|

Duration Legend
---------------

W - whole; H - half; Q - quarter; E - 8th; S - 16th; T - 32nd; X - 64th; a - acciaccatura
+ - note tied to previous; . - note dotted; .. - note double dotted
Uncapitalized letters represent notes that are staccato (1/2 duration)
duration for.  Duration letters with no t number below them represent rests.  Multi-
bar rests are notated in the form Wxn, where n is the number of bars to rest for.  Low
----------------

 h   - hammer-on
 b   - bend
 pb  - pre-bend
 r   - bend release (if no number after the r, then release immediately)
 s   - legato slide
 S   - shift slide
 - natural harmonic
n  - artificial harmonic
n(n) - tapped harmonic
 ~   - vibrato
 T   - tap
 PM  - palm muting
\n/  - tremolo bar dip; n = amount to dip
 =   - hold bend; also acts as connecting device for hammers/pulls
 x   - on rhythm slash represents muted slash
Misc Legend
-----------

||o - repeat start

 &  - Coda
Tempo markers -  = BPM(8/16=s8/s16), where s8 = swing 8ths, s16 = swing 16ths
						
# Artist Title Tabdesignator