X Japan

Ill Kill You


							
#---------------------------------- NOTE---------------------------------#

#------------------------------------------------------------------------------#

Gtr I (Eb Ab Db Gb Bb Eb) - 'Vocals'
Gtr II (Eb Ab Db Gb) - 'Picked Bass'
  Q=195
 4/4

  H    E E E E   E S S S S S S E S S S S S S   E S S S S S S E S S S S S S
|--------------|---------------4-------------|---------------2-------------|
|----------0-1-|-2-2-2-2-2-2-2---2-2-2-2-2-2-|-0-0-0-0-0-0-0---0-0-0-0-0-0-|
|--------2-----|-----------------------------|-----------------------------|
|--------------|-----------------------------|-----------------------------|

  E S S S S S S E S S S S S S   E S S S S S S E S S E S S
|-----------------------------|---------------------------|
|---------------5-------------|-5-------------------------|
|-3-3-3-3-3-3-3---3-3-3-3-3-3-|---3-3-3-3-3-3-3-3-3-5-5-5-|
|-----------------------------|---------------------------|

  E S S S S S S E S S S S S S   E S S S S S S E S S S S S S
|-----------------------------|-----------------------------|
|---------------9-------------|---------------7-------------|
|-7-7-7-7-7-7-7---7-7-7-7-7-7-|-5-5-5-5-5-5-5---5-5-5-5-5-5-|
|-----------------------------|-----------------------------|

|-----------------------------|
|-----------------------------|
|-----------------------------|
|-----------------------------|
|-----------------------------|
|-----------------------------|

| E S S S S S S E S S S S S S
|-----------------------------|
|---------------5-------------|
|-3-3-3-3-3-3-3---3-3-3-3-3-3-|
|-----------------------------|

  W                       Q     Q       Q    Q
|-----------------------|-7-------------7----7----|
|-----------------------|-------------------------|
|-----------------------|-------------------------|
|-----------------------|-------------------------|
|-----------------------|-------------------------|
|-----------------------|-------------------------|

| E S S S S S S E E E E   E S S S S S S E. S E E
|-----------------------|---------------9---------|
|-5-----------------0-1-|-2-2-2-2-2-2-2-----------|
|---3-3-3-3-3-3---2-----|--------------------7-6--|
|---------------0-------|------------------7------|

  Q     Q       Q    Q     H.                   Q         W
|------------------------|------------------------------|-----------------|
|-7-------------8----7---|-5----------------------------|-----------------|
|------------------------|------------------------------|-----------------|
|------------------------|------------------------------|-----------------|
|------------------------|------------------------------|-----------------|
|------------------------|------------------------------|-----------------|

| E S S S S S S E. S E E   E  S S S S S S E S S S S S S   E E E E E E E E
|---------------7--------|------------------------------|-----------------|
|------------------------|------------------------------|-----------------|
|-5-5-5-5-5-5-5------5-6-|-7--7-7-7-7-7-7-7-7-7-7-7-7-7-|-7-------0-2-3-5-|
|------------------7-----|------------------------------|---0-2-3---------|

  Q     Q       Q    Q     H             H
|-7------------------7---|-5----------------------|
|------------------------|------------------------|
|------------------------|------------------------|
|------------------------|------------------------|
|------------------------|------------------------|
|------------------------|------------------------|

| E S S S S S S E. S E E   E S S S S S S E. S E E
|---------------9--------|---------------7--------|
|------------------------|------------------------|
|-7-7-7-7-7-7-7------7-6-|-5-5-5-5-5-5-5------5-6-|
|------------------7-----|------------------7-----|

|-7----------------------------|
|------------------------------|
|------------------------------|
|------------------------------|
|------------------------------|
|------------------------------|

| E S S S S S S E S S S S S S
|------------------------------|
|------------------------------|
|-7-7-7-7-7-7-7-7-7-7-7-7-7-7--|
|------------------------------|

  +Q      Q       Q   Q     H            H
|-(7)-----------------7---|-8------------8-------------|
|-------------------------|----------------------------|
|-------------------------|----------------------------|
|-------------------------|----------------------------|
|-------------------------|----------------------------|
|-------------------------|----------------------------|

|  E  S S S S S S E E E E   E S S S S  E E.  S  +E   E
|-------------------------|----------------------------|
|-------------------------|-----------10----10-(10)-12-|
|--7--7-7-7-7-7-7-7---5-7-|-8-8-8-8-8----8-------------|
|-------------------7-----|----------------------------|

   H              Q       E   E
|-10--------------------------8--|
|--------------------------------|
|--------------------------------|
|--------------------------------|
|--------------------------------|
|--------------------------------|

|  E.  S  +E   E  E.  S  +E   E
|--------------------------------|
|-----12-(12)-14-----------------|
|-10-----------------------------|
|----------------15--17-(17)-15--|

   H                 H                H             H
|--8-----------------8-------------|---------------------------|
|----------------------------------|--8------------------------|
|----------------------------------|---------------------------|
|----------------------------------|---------------------------|
|----------------------------------|---------------------------|
|----------------------------------|---------------------------|

|  E  S  S  S  S  E  E.  S  +E   E    E.  S  +E   E E. S +E  E
|----------------------------------|---------------------------|
|----------------------------------|----------------5--7-(7)-5-|
|----------------15-----15-(15)-17-|-----17-(17)-19------------|
|-13-13-13-13-13----13-------------|-15------------------------|

  H           Q     Q       Q     Q     E   E    Q
|-8-----------8-----8----|-10----10----10--10---10------|
|------------------------|------------------------------|
|------------------------|------------------------------|
|------------------------|------------------------------|
|------------------------|------------------------------|
|------------------------|------------------------------|

| E S S S S E E. S +E  E    E. S +E  E  E.    S +E   E
|-----------5----5-(5)-7-|-----7-(7)-9------------------|
|-3-3-3-3-3---3----------|--5---------------------------|
|------------------------|------------------------------|
|------------------------|--------------8-----9-(9)-10--|

|-12----------------------|
|-------------------------|
|-------------------------|
|-------------------------|
|-------------------------|
|-------------------------|

|  E. S +E  E E. S +E   E
|-------------------------|
|-------------------------|
|--0--0-(0)-0-0--0-(0)----|
|----------------------12-|

   +Q   Q       H                  Q     Q       H
|-(12)--------------------------|-------------------------|
|-------------------------------|-12----------------------|
|-------------------------------|-------------------------|
|-------------------------------|-------------------------|
|-------------------------------|-------------------------|
|-------------------------------|-------------------------|

|   Q   S S S S S S S S S S S S    E S S S S S S E. S E E
|-------------------------------|----------------9--------|
|-------------------------------|-------------------------|
|--12---2-2-2-2-3-3-3-3-5-5-5-5-|--7-7-7-7-7-7-7------7-6-|
|-------------------------------|-------------------7-----|

   Q     Q       H          H.                   Q         H       Q   Q
|-------------------------|------------------------------|-----------------|
|-------------------------|------------------------------|-----------------|
|-11----------------------|-9----------------------------|-------------9---|
|-------------------------|------------------------------|-----------------|
|-------------------------|------------------------------|-----------------|
|-------------------------|------------------------------|-----------------|

|  E S S S S S S E. S E E   E  S S S S S S E S S S S S S   E E E E E E E E
|----------------7--------|------------------------------|-----------------|
|-------------------------|------------------------------|-----------------|
|--5-5-5-5-5-5-5------5-6-|-7--7-7-7-7-7-7-7-7-7-7-7-7-7-|-7-------0-2-3-5-|
|-------------------7-----|------------------------------|---0-2-3---------|

  Q     Q       Q    Q     H             H
|-7------------------7---|-5----------------------|
|------------------------|------------------------|
|------------------------|------------------------|
|------------------------|------------------------|
|------------------------|------------------------|
|------------------------|------------------------|

| E S S S S S S E. S E E   E S S S S S S E. S E E
|---------------9--------|---------------7--------|
|------------------------|------------------------|
|-7-7-7-7-7-7-7------7-6-|-5-5-5-5-5-5-5------5-6-|
|------------------7-----|------------------7-----|

|-7----------------------------|
|------------------------------|
|------------------------------|
|------------------------------|
|------------------------------|
|------------------------------|

| E S S S S S S E S S S S S S
|------------------------------|
|------------------------------|
|-7-7-7-7-7-7-7-7-7-7-7-7-7-7--|
|------------------------------|

  +Q      Q       Q   Q     Q.          E Q       Q
|-(7)-----------------7---|-8-----------8-8-------8-----|
|-------------------------|-----------------------------|
|-------------------------|-----------------------------|
|-------------------------|-----------------------------|
|-------------------------|-----------------------------|
|-------------------------|-----------------------------|

|  E  S S S S S S E E E E   E  S S S S  E E.  S  +E   E
|-------------------------|-----------------------------|
|-------------------------|------------10----10-(10)-12-|
|--7--7-7-7-7-7-7-7---5-7-|-8--8-8-8-8----8-------------|
|-------------------7-----|-----------------------------|

|-10-----------------------------|
|--------------------------------|
|--------------------------------|
|--------------------------------|
|--------------------------------|
|--------------------------------|

|  E.  S  +E   E  E.  S  +E   E
|--------------------------------|
|-----12-(12)-14-----------------|
|-10-----------------------------|
|----------------15--17-(17)-15--|

   Q.              E  Q       Q        H             H
|--8---------------8--8-------8-----|-10------------------------|
|-----------------------------------|---------------------------|
|-----------------------------------|---------------------------|
|-----------------------------------|---------------------------|
|-----------------------------------|---------------------------|
|-----------------------------------|---------------------------|

|  E   S  S  S  S  E  E.  S  +E   E    E.  S  +E   E E. S +E  E
|-----------------------------------|---------------------------|
|-----------------------------------|----------------5--7-(7)-5-|
|-----------------15-----15-(15)-17-|-----17-(17)-19------------|
|-13--13-13-13-13----13-------------|-15------------------------|

  H           Q     Q       H          H
|-8-----------------8----|-10----------------------|
|------------------------|-------------------------|
|------------------------|-------------------------|
|------------------------|-------------------------|
|------------------------|-------------------------|
|------------------------|-------------------------|

| E S S S S E E. S +E  E    E. S +E  E E. S +E   E
|-----------5----5-(5)-7-|-----7-(7)-9-------------|
|-3-3-3-3-3---3----------|--5----------------------|
|------------------------|-------------------------|
|------------------------|-------------8--9-(9)-10-|

|-12----------------------|-(12)--------------------------|
|-------------------------|-------------------------------|
|-------------------------|-------------------------------|
|-------------------------|-------------------------------|
|-------------------------|-------------------------------|
|-------------------------|-------------------------------|

|  E. S +E  E E. S +E   E     Q   S S S S S S S S S S S S
|-------------------------|-------------------------------|
|-------------------------|-------------------------------|
|--0--0-(0)-0-0--0-(0)----|--12---2-2-2-2-3-3-3-3-0-0-0-0-|
|----------------------12-|-------------------------------|

   H           E  E  E  E
|--------------------------|
|-12-------------12-12-12--|
|--------------------------|
|--------------------------|
|--------------------------|
|--------------------------|

|  E S S E S S E  E  E  E
|--------------------------|
|-----------------5--4-----|
|-----------------------5--|
|--0-0-0-0-0-0-0-----------|

   H           E  E  E  E    H           H         W
|-------------------------|----------------------|------------------|
|-12-------------12-12-12-|-12-------------------|------------------|
|-------------------------|----------------------|------------------|
|-------------------------|----------------------|------------------|
|-------------------------|----------------------|------------------|
|-------------------------|----------------------|------------------|

|  E S S E S S E  E  E  E    E S S E S S E E E E   Q  E E +E  E E E
|-------------------------|----------------------|------2-(2)-0-----|
|-----------------5--4----|----------------5-4-5-|----2---------4---|
|-----------------------5-|----------------------|----------------5-|
|--0-0-0-0-0-0-0----------|--0-0-0-0-0-0-0-------|-3----------------|

   H           E  E  E  E    H           E  E  E  E    H           H
|-------------------------|-------------------------|----------------------|
|-12-------------12-12-12-|-12-------------12-12-12-|-12-------------------|
|-------------------------|-------------------------|----------------------|
|-------------------------|-------------------------|----------------------|
|-------------------------|-------------------------|----------------------|
|-------------------------|-------------------------|----------------------|

|  E S S E S S E  E  E  E    E S S E S S E  E  E  E    E S S E S S E E E E
|-------------------------|-------------------------|----------------------|
|-----------------5--4----|-----------------5--4----|----------------5-4-5-|
|-----------------------5-|-----------------------5-|----------------------|
|--0-0-0-0-0-0-0----------|--0-0-0-0-0-0-0----------|--0-0-0-0-0-0-0-------|

  W                  H          Q     Q
|------------------|----------------------|
|------------------|----------------------|
|------------------|-----------------12---|
|------------------|----------------------|
|------------------|----------------------|
|------------------|----------------------|

| Q  E E +E  E E E   S E S E E +E  E  E E
|------2-(2)-0-----|------------------9---|
|----2---------4---|---------------9----9-|
|----------------5-|-7---7---7-(7)--------|
|-3----------------|----------------------|

   Q.        E  +E   E  Q     Q     E  E  +E  E  Q
|-12--------10-(10)-----8--|-10--------8--(8)---10----|
|-10-------------------10--|-12-------10-(10)---12----|
|--------------------------|--------------------------|
|--------------------------|--------------------------|
|--------------------------|--------------------------|
|--------------------------|--------------------------|

|  E  S S E  E   E   E  Q     E S S E  E   E  E  E E
|-----------10---9---------|--------------------------|
|-------------------10-----|-----------------------0--|
|--8--8-8-8-------------8--|-----------2---3--2--2----|
|--------------------------|--3-3-3-3-----------------|

  H           Q      Q        H.                Q
|-8-----------------10-----|-15---------------------|
|--------------------------|-17---------------------|
|--------------------------|------------------------|
|--------------------------|-------------------17---|
|--------------------------|------------------------|
|--------------------------|------------------------|

| E S S S S E E S S  S S E    E  S S S S E E E  E E
|--------------------------|---------------5-4--2-0-|
|--------------------------|------------------------|
|-0-0-0-0-0-0-0-0-0--0-0-0-|--0--0-0-0-0-0----------|
|--------------------------|------------------------|

   E  E    +E   E  +E   E  Q
|-----------------------------|
|-----------------------------|
|-----------------------------|
|-19-19---(19)-19-(19)----19--|
|-20-20---(20)-20-(20)----20--|
|-----------------------------|

|  E  S S   E   E   E   E  Q
|--------------10---9---------|
|--3--3-3---3----------10-----|
|--------------------------8--|
|-----------------------------|

   Q     E  E  +E   E  Q      W                         H       Q     Q
|--------------------------|--------------------------|--------------------|
|--------------------------|--------------------------|--------------------|
|--------------------------|--------------------------|--------------------|
|-21-------19-(19)-19-21---|-22-----------------------|--------------------|
|-22-------20-(20)-20-22---|-24-----------------------|--------------22----|
|--------------------------|--------------------------|--------------------|

|  E S S E  E   E   E  E E    E S S S S E E S S S S E   Q  E E +E  E  E E
|--------------------------|--------------------------|-2--0---------------|
|------------------------0-|--------------------------|------3-(3)-2--0----|
|-----------2---3---2--2---|--0-0-0-0-0-0-0-0-0-0-0-0-|-----------------3--|
|--3-3-3-3-----------------|--------------------------|--------------------|

   Q.        E  +E   E  Q     Q     E  E  +E  E  Q
|--------------------------|-------------------------|
|--------------------------|-15-------13-(13)---15---|
|-21--------19-(19)----17--|-16-------14-(14)---16---|
|-19-------------------19--|-------------------------|
|--------------------------|-------------------------|
|--------------------------|-------------------------|

|  E  S S E  E   E   E  Q     E S S E  E   E  E  E E
|-----------10---9---------|-------------------------|
|--3--3-3-3---------10-----|-----------------------0-|
|-----------------------8--|-----------2---3--2--2---|
|--------------------------|--3-3-3-3----------------|

   Q     Q     Q      Q
|---------------------------|
|-17-----------------15-----|
|-17-----------------16-----|
|---------------------------|
|---------------------------|
|---------------------------|

|  E S S S S E E S S  S S E
|---------------------------|
|---------------------------|
|--0-0-0-0-0-0-0-0-0--0-0-0-|
|---------------------------|

   H.                Q      E  E    +E   E  +E   E  Q
|------------------------|-----------------------------|
|-17---------------------|-----------------------------|
|-17---------------------|-17-17---(17)-17-(17)----17--|
|-------------------17---|-19-19---(19)-19-(19)----19--|
|------------------------|-----------------------------|
|------------------------|-----------------------------|

|  E  S S S S E E E  E E    E  S S   E   E   E   E  Q
|---------------5-4--2-0-|--------------10---9---------|
|------------------------|--3--3-3---3----------10-----|
|--0--0-0-0-0-0----------|--------------------------8--|
|------------------------|-----------------------------|

   Q     E  E  +E  E  Q      H.               Q
|-------------------------|------------------------|
|-15-------13-(13)---15---|-13---------------------|
|-16-------14-(14)---16---|-14---------------------|
|-------------------------|------------------------|
|-------------------------|------------------------|
|-------------------------|------------------------|

|  E S S E  E   E  E  E E    E. S +E  E E. S +E  E
|-------------------------|------------------------|
|-----------------------0-|------------------------|
|-----------2---3--2--2---|--0--0-(0)-0-0--0-(0)-0-|
|--3-3-3-3----------------|------------------------|

  H          E  E  +E   E    +E  E    Q    H
|--------------12-(12)-12-|-(12)----------------------|
|-------------------------|---------------------------|
|-------------------------|---------------------------|
|-------------------------|---------------------------|
|-------------------------|---------------------------|
|-------------------------|---------------------------|

| E. S +E  E H                E.   S +E  E E. S +E  E
|-------------------------|---------------------------|
|-------------------------|---------------------------|
|-0--0-(0)-0-0------------|---0----0-(0)-0-0--0-(0)-0-|
|-------------------------|---------------------------|

  H          E  E  +E   E    +E  E    Q    H
|--------------12-(12)-12-|-(12)----------------------|
|-------------------------|---------------------------|
|-------------------------|---------------------------|
|-------------------------|---------------------------|
|-------------------------|---------------------------|
|-------------------------|---------------------------|

| E. S +E  E H                E.   S +E  E E. S +E  E
|-------------------------|---------------------------|
|-------------------------|---------------------------|
|-0--0-(0)-0-0------------|---0----0-(0)-0-0--0-(0)-0-|
|-------------------------|---------------------------|

  H          E  E  +E   E    +E  E      Q      H
|--------------10-(10)-12-|-(12)-----------------------------|
|-------------------------|----------------------------------|
|-------------------------|----------------------------------|
|-------------------------|----------------------------------|
|-------------------------|----------------------------------|
|-------------------------|----------------------------------|

| E. S +E  E H                E.    S  +E   E  S  S  E  E  E
|-------------------------|---2----14-(14)----------14----14-|
|-------------------------|----------------------------14----|
|-0--0-(0)-0-0------------|----------------12-12-12----------|
|-------------------------|----------------------------------|

   Q  Q   Q  Q     Q  E  E  Q  E  E
|---------------|-10----10-10----10-|
|--------12-----|-------------------|
|-12------------|-------------------|
|---------------|-------------------|
|---------------|-------------------|
|---------------|-------------------|

|---------------|-------------------|
|---------------|-------------------|
|---------------|-------------------|
|---------------|-------------------|

   E  E  +Q    +E  E Q
|-10-10-(10)--(10)------|
|-----------------------|
|-----------------------|
|-----------------------|
|-----------------------|
|-----------------------|

|-----------------------|
|-----------------------|
|-----------------------|
|-----------------------|

|--------------------------------|------------------------|
|--------------------------------|------------------------|
|--------------------------------|------------------------|
|--------------------------------|------------------------|
|--------------------------------|------------------------|
|--------------------------------|------------------------|

|  E  S  S  S  S  S  S  E. S E E   E S S S S S S E. S E E
|--------------------------------|---------------7--------|
|----------------------14----2-1-|-0-0-0-0-0-0-0----------|
|--------------------------2-----|--------------------5-6-|
|-12-12-12-12-12-12-12-----------|------------------7-----|

  E S S S S S S E S S S S S S   E E E E E E E E   E S S S S S S E. S E E
|-----------------------------|-----------------|---------------9--------|
|-----------------------------|-----------------|------------------------|
|-7-7-7-7-7-7-7-7-7-7-7-7-7-7-|-7-------0-2-3-5-|-7-7-7-7-7-7-7------7-6-|
|-----------------------------|---0-2-3---------|------------------7-----|

  E S S S S S S E. S E E
|---------------7--------|
|------------------------|
|-5-5-5-5-5-5-5------5-6-|
|------------------7-----|

  E S S S S S S E S S S S S S   E S S S S S S E E E E
|-----------------------------|------------------------|
|-----------------------------|------------------------|
|-7-7-7-7-7-7-7-7-7-7-7-7-7-7-|-7-7-7-7-7-7-7-7---5-7--|
|-----------------------------|-----------------7------|

  E S S S S  E E.  S  +E   E    E.  S  +E   E  E.  S  +E   E
|----------------------------|-------------------------------|
|-----------10----10-(10)-12-|-----12-(12)-14----------------|
|-8-8-8-8-8----8-------------|-10----------------------------|
|----------------------------|----------------15--17-(17)-15-|

   E  S  S  S  S  E  E.  S  +E   E    E.  S  +E   E E. S +E  E
|----------------------------------|---------------------------|
|----------------------------------|----------------5--7-(7)-5-|
|----------------15-----15-(15)-17-|-----17-(17)-19------------|
|-13-13-13-13-13----13-------------|-15------------------------|

  E S S S S E E. S +E  E   E. S +E  E E. S +E   E   E. S +E  E E. S +E   E
|-----------5----5-(5)-7-|----7-(7)-9-------------|------------------------|
|-3-3-3-3-3---3----------|-5----------------------|------------------------|
|------------------------|------------------------|-0--0-(0)-0-0--0-(0)----|
|------------------------|------------8--9-(9)-10-|---------------------12-|

|-----------------------------|
|-----------------------------|
|-----------------------------|
|-----------------------------|
|-----------------------------|
|-----------------------------|

|  Q  S S S S S S S S S S S S
|-----------------------------|
|-----------------------------|
|-12--2-2-2-2-3-3-3-3-5-5-5-5-|
|-----------------------------|

   Q     Q        Q     Q      Q     Q        Q     Q
|---------------------------|----------------------------|
|-12-------------12----12---|----------------------------|
|---------------------------|-11-------------12----11----|
|---------------------------|----------------------------|
|---------------------------|----------------------------|
|---------------------------|----------------------------|

|  E S S S S S S  E. S  E E    E S S S S S S  E. S  E E
|-----------------9---------|-----------------7----------|
|---------------------------|----------------------------|
|--7-7-7-7-7-7-7--------7-6-|--5-5-5-5-5-5-5--------5-6--|
|--------------------7------|--------------------7-------|

  H.                   Q         W                 Q     Q       Q    Q
|------------------------------|-----------------|-7------------------7---|
|------------------------------|-----------------|------------------------|
|-9----------------------------|-----------------|------------------------|
|------------------------------|-----------------|------------------------|
|------------------------------|-----------------|------------------------|
|------------------------------|-----------------|------------------------|

| E  S S S S S S E S S S S S S   E E E E E E E E   E S S S S S S E. S E E
|------------------------------|-----------------|---------------9--------|
|------------------------------|-----------------|------------------------|
|-7--7-7-7-7-7-7-7-7-7-7-7-7-7-|-7-------0-2-3-5-|-7-7-7-7-7-7-7------7-6-|
|------------------------------|---0-2-3---------|------------------7-----|

|-5----------------------|-7---------------------------|
|------------------------|-----------------------------|
|------------------------|-----------------------------|
|------------------------|-----------------------------|
|------------------------|-----------------------------|
|------------------------|-----------------------------|

| E S S S S S S E. S E E   E S S S S S S E S S S S S S
|---------------7--------|-----------------------------|
|------------------------|-----------------------------|
|-5-5-5-5-5-5-5------5-6-|-7-7-7-7-7-7-7-7-7-7-7-7-7-7-|
|------------------7-----|-----------------------------|

  +Q      Q       Q   Q
|-(7)-----------------7----|
|--------------------------|
|--------------------------|
|--------------------------|
|--------------------------|
|--------------------------|

|  E  S S S S S S E E E E
|--------------------------|
|--------------------------|
|--7--7-7-7-7-7-7-7---5-7--|
|-------------------7------|

  H            H                H              Q       E   E
|-8------------8-------------|-10--------------------------8-|
|----------------------------|-------------------------------|
|----------------------------|-------------------------------|
|----------------------------|-------------------------------|
|----------------------------|-------------------------------|
|----------------------------|-------------------------------|

| E S S S S  E E.  S  +E   E    E.  S  +E   E  E.  S  +E   E
|----------------------------|-------------------------------|
|-----------10----10-(10)-12-|-----12-(12)-14----------------|
|-8-8-8-8-8----8-------------|-10----------------------------|
|----------------------------|----------------15--17-(17)-15-|

   H                 H                H             H
|--8-----------------8-------------|-10------------------------|
|----------------------------------|---------------------------|
|----------------------------------|---------------------------|
|----------------------------------|---------------------------|
|----------------------------------|---------------------------|
|----------------------------------|---------------------------|

|  E  S  S  S  S  E  E.  S  +E   E    E.  S  +E   E E. S +E  E
|----------------------------------|---------------------------|
|----------------------------------|----------------5--7-(7)-5-|
|----------------15-----15-(15)-17-|-----17-(17)-19------------|
|-13-13-13-13-13----13-------------|-15------------------------|

  H           Q     Q       Q     Q     E   E    Q
|-8-----------8-----8----|-10----10----10--10---10-----|
|------------------------|-----------------------------|
|------------------------|-----------------------------|
|------------------------|-----------------------------|
|------------------------|-----------------------------|
|------------------------|-----------------------------|

| E S S S S E E. S +E  E    E. S +E  E  E.    S +E   E
|-----------5----5-(5)-7-|-----7-(7)-9-----------------|
|-3-3-3-3-3---3----------|--5--------------------------|
|------------------------|-----------------------------|
|------------------------|--------------8-----9-(9)-10-|

|-12----------------------|-(12)------------------|
|-------------------------|-----------------------|
|-------------------------|-----------------------|
|-------------------------|-----------------------|
|-------------------------|-----------------------|
|-------------------------|-----------------------|

|  E. S +E  E E. S +E   E     E.  S  +E   E  H
|-------------------------|-----------------------|
|-------------------------|-----------------------|
|--0--0-(0)-0-0--0-(0)----|--12--12-(12)-12-12----|
|----------------------12-|-----------------------|

   E  S  S  S  S  E  E. S E E
|-----------------------------|
|-------------------14----2-1-|
|----------------14-----2-----|
|-12-12-12-12-12--------------|

  E S S S S E E. S E E   E S S S S E E S S S S E
|-----------2-7--------|-----------5--------------|
|-0-0-0-0-0------------|--------------------------|
|------------------5-4-|-3-3-3-3-3---3-3-3-3-3-3--|
|----------------5-----|--------------------------|

  E S S S S E E E +E  E   E S S S S E E. S E E   E S S S S E E. S E E
|-------------5-------2-|-----------4-9--------|-------------7--------|
|-----------5-----------|-2-2-2-2-2------------|-----------7----------|
|-3-3-3-3-3-----3-(3)---|------------------7-6-|-5-5-5-5-5--------5-4-|
|-----------------------|----------------7-----|----------------5-----|

|-------------------------|
|-------------------------|
|-------------------------|
|-------------------------|
|-------------------------|
|-------------------------|

| E S S S S E E S S S S E
|-----------5-------------|
|-------------------------|
|-3-3-3-3-3---3-3-3-3-3-3-|
|-------------------------|

  H          E    E    +E  E    H           H
|----------------10---(10)---|-12---------------------|
|----------------------------|-10---------------------|
|----------------------------|------------------------|
|----------------------------|------------------------|
|----------------------------|------------------------|
|----------------------------|------------------------|

| Q  S S S S S S  S S   E  E    E S S S S E E. S E E
|----------------------------|--------------9---------|
|----------------------------|------------9-----------|
|-3----------0-0--0-0---3--5-|--7-7-7-7-7--------7-6--|
|----3-3-3-3-----------------|-----------------7------|

   H           H           H           H             W
|-12--------------------|-12-----------------------|------------------------|
|-10--------------------|-10-----------------------|------------------------|
|-----------------------|--------------------------|------------------------|
|-----------------------|--------------------------|------------------------|
|-----------------------|--------------------------|------------------------|
|-----------------------|--------------------------|------------------------|

|  E S S S S E E. S E E    E S S S S E E S S S S E   E S S S S E E E +E  E
|--------------7--------|------------5-------------|-------------5-------2--|
|------------7----------|--------------------------|-----------5------------|
|--5-5-5-5-5--------5-4-|--3-3-3-3-3---3-3-3-3-3-3-|-3-3-3-3-3-----3-(3)----|
|-----------------5-----|--------------------------|------------------------|

   H           H           H           H           H           H
|-12--------------------|-12--------------------|-12------------------------|
|-10--------------------|-10--------------------|-10------------------------|
|-----------------------|-----------------------|---------------------------|
|-----------------------|-----------------------|---------------------------|
|-----------------------|-----------------------|---------------------------|
|-----------------------|-----------------------|---------------------------|

|  E S S S S E E. S E E    E S S S S E E. S E E    E S S S S E E S S S S E
|------------4-9--------|--------------7--------|------------5--------------|
|--2-2-2-2-2------------|------------7----------|---------------------------|
|-------------------7-6-|--5-5-5-5-5--------5-4-|--3-3-3-3-3---3-3-3-3-3-3--|
|-----------------7-----|-----------------5-----|---------------------------|

  W                         H           H           H           H
|------------------------|-----------------------|------------------------|
|------------------------|-10--------------------|-10---------------------|
|------------------------|-----------------------|------------------------|
|------------------------|-----------------------|------------------------|
|------------------------|-----------------------|------------------------|
|------------------------|-----------------------|------------------------|

| Q  S S S S S S S S E E    E S S S S E E. S E E    E S S S S E E. S E E
|------------------------|--------------9--------|--------------7---------|
|------------------------|------------9----------|------------7-----------|
|-3----------0-0-0-0-3-5-|--7-7-7-7-7--------7-6-|--5-5-5-5-5--------5-4--|
|----3-3-3-3-------------|-----------------7-----|-----------------5------|

   H           H             W                        H           H
|--------------------------|-----------------------|------------------------|
|-10-----------------------|-----------------------|-10---------------------|
|--------------------------|-----------------------|------------------------|
|--------------------------|-----------------------|------------------------|
|--------------------------|-----------------------|------------------------|
|--------------------------|-----------------------|------------------------|

|  E S S S S E E S S S S E   E S S S S E E E +E  E    E S S S S E E. S E E
|------------5-------------|-------------5-------2-|------------4-9---------|
|--------------------------|-----------5-----------|--2-2-2-2-2-------------|
|--3-3-3-3-3---3-3-3-3-3-3-|-3-3-3-3-3-----3-(3)---|-------------------7-6--|
|--------------------------|-----------------------|-----------------7------|

   H           H           H           H             W
|-----------------------|--------------------------|-------------------------|
|-10--------------------|-10-----------------------|-------------------------|
|-----------------------|--------------------------|-------------------------|
|-----------------------|--------------------------|-------------------------|
|-----------------------|--------------------------|-------------------------|
|-----------------------|--------------------------|-------------------------|

|  E S S S S E E. S E E    E S S S S E E S S S S E   Q  S S S S S S S S E E
|--------------7--------|------------5-------------|-------------------------|
|------------7----------|--------------------------|-------------------------|
|--5-5-5-5-5--------5-4-|--3-3-3-3-3---3-3-3-3-3-3-|-3----------0-0-0-0-3-5--|
|-----------------5-----|--------------------------|----3-3-3-3--------------|

|-------------------------|-------------------------------------|
|-------------------------|-------------------------------------|
|-------------------------|-------------------------------------|
|-------------------------|-12----------------------------------|
|-------------------------|-------------------------------------|
|-------------------------|-------------------------------------|

| S S S S S S S S E E E E    S  S  S  S  S  S  S  S  E  E  E  E
|-------------------------|-------------------------------------|
|-------------------9-7-9-|-------------------------------------|
|-7-7-7-7-7-7-7-7-7-------|----------------------------12-10-12-|
|-------------------------|-10-10-10-10-10-10-10-10-10----------|

|-12-------------------------------|
|----------------------------------|
|----------------------------------|
|----------------------------------|
|----------------------------------|
|----------------------------------|

|  S S S S S S S S S S S S S S S S
|----------------------------------|
|----------------------------------|
|----------------------------------|
|--8-8-8-8-8-8-8-8-8-8-8-8-8-8-8-8-|

|-(12)---------------|---------------------------|
|--------------------|-10------------------------|
|--------------------|---------------------------|
|--------------------|---------------------------|
|--------------------|---------------------------|
|--------------------|---------------------------|

|   E  E E E E E E E    S S S S S S S S E E E E
|--------------------|---------------------------|
|--------------------|--------------------9-7-9--|
|------------0-2-3-5-|--7-7-7-7-7-7-7-7-7--------|
|---8--0-2-3---------|---------------------------|

|-12----------------------------------|
|-10----------------------------------|
|-------------------------------------|
|-------------------------------------|
|-------------------------------------|
|-------------------------------------|

|  S  S  S  S  S  S  S  S  E  E  E  E
|-------------------------------------|
|-------------------------------------|
|----------------------------12-10-12-|
|-10-10-10-10-10-10-10-10-10----------|

|-12-------------------------------|-(12)----------------|
|-10-------------------------------|-(10)----------------|
|----------------------------------|---------------------|
|----------------------------------|---------------------|
|----------------------------------|---------------------|
|----------------------------------|---------------------|

|  S S S S S S S S S S S S S S S S     E  E E E E E E E
|----------------------------------|---------------------|
|----------------------------------|---------------------|
|----------------------------------|------------0-2-3-5--|
|--8-8-8-8-8-8-8-8-8-8-8-8-8-8-8-8-|---8--0-2-3----------|

   Q     E   E  +H
|-12----12--12-(12)----*|
|----------------------*|
|----------------------*|
|----------------------*|
|----------------------*|
|----------------------*|

|  E. S +E   E  +H
|----------------------*|
|----------------------*|
|--7--7-(7)--7--(7)----*|
|----------------------*|

Duration Legend
---------------

W - whole; H - half; Q - quarter; E - 8th; S - 16th; T - 32nd; X - 64th; a - acciaccatura
+ - note tied to previous; . - note dotted; .. - note double dotted
Uncapitalized letters represent notes that are staccato (1/2 duration)
duration for.  Duration letters with no t number below them represent rests.  Multi-
bar rests are notated in the form Wxn, where n is the number of bars to rest for.  Low
----------------

 h   - hammer-on
 b   - bend
 pb  - pre-bend
 r   - bend release (if no number after the r, then release immediately)
 s   - legato slide
 S   - shift slide
 - natural harmonic
n  - artificial harmonic
n(n) - tapped harmonic
 ~   - vibrato
 T   - tap
 PM  - palm muting
\n/  - tremolo bar dip; n = amount to dip
 =   - hold bend; also acts as connecting device for hammers/pulls
 x   - on rhythm slash represents muted slash
Misc Legend
-----------

||o - repeat start

 &  - Coda
Tempo markers -  = BPM(8/16=s8/s16), where s8 = swing 8ths, s16 = swing 16ths
						
# Artist Title Tabdesignator