Symphony X

Domination Game


							
***Symphony X - Domination***
-----------------------

*Intro*
Tempo = 230
|----3----|   |----3----|

E  E  E  E  E  E  E  E     E  E  E  E   E    E    E   E    E    E
F||---7--------5--------------|--------------11h--12h--14----------------|
C||*-----0--0-----0--0--5--0--|--8--0--7--0----------------10h--12h--13--|
G||*--------------------------|------------------------------------------|
D||---------------------------|------------------------------------------|

___________________________
|1.                         |

E  E  E   E  E  E  E  E  |  E  E  E  E  E  E  E  E   |
----------------------------|---------------------------||
--12--0--0--10--0--0--8--0--|--7--0--5--0--4--0--1--0--*||
----------------------------|--------------------------*||
----------------------------|---------------------------||

_________________________________________
|2.  |

|   E    E    E    E    E    E    E    E  |    E  E  E  E  E  E  E  E
----------------------5--5------------||---------------------------|
------------5--5------------5--5--||*--0--0--0--0--0--0--0--0--|
--5--5--------------------------------||*--------------------------|
------------------------------------------||---------------------------|

E  E  E  E  E  E  E  E     E  E  E  E  E  E  E  E
--------------------------|--------------------------|
--0--0--0--0--------1--1--|--0--0--0--0--0--0--8--0--|
--------------3--3--------|--------------------------|
--------------------------|--------------------------|

_______________________________________________
__________________________ |2.     |
|1.                        ||  |---3---|  |---3---|  |---3---|  |----3---|  |

| E  E  E  E  E  E  E  E   ||  E   E   E  E   E   E  E   E   E  E   E    E  |
---------------------------||-----------------------------------------------|
--7--0--5--0--4--0--1--0--*||------------------------0h--4h--7--0h--7h--10--|
--------------------------*||--0h--3h--6--0h--6h--9-------------------------|
---------------------------||-----------------------------------------------|

E  E  E  E  E  E  E  E     E  E  E  E  E  E  E  E
|---------------------------|--------------------------|
|*--0--0--0--0--0--0--0--0--|--0--0--0--0--------1--1--|
|*--------------------------|--------------3--3--------|
|---------------------------|--------------------------|

____________________________
|1.       |

E  E  E  E  E  E  E  E  |  E  E  E  E  E  E  E  E    |
--------------------------|---------------------------||
--0--0--0--0--0--0--8--0--|--7--0--5--0--4--0--1--0--*||
--------------------------|--------------------------*||
--------------------------|---------------------------||

______________________________________________
|2.       |
| |---3---|  |---3---|  |---3---|  |----3---|  |

| E   E   E  E   E   E  E   E   E  E   E    E  |    E  E  E  E  E  E  E  E
-----------------------------------------------||---------------------------|
------------------------0h--4h--7--0h--7h--10--||*--7--------5--------------|
--0h--3h--6--0h--6h--9-------------------------||*-----0--0-----0--0--5--0--|
-----------------------------------------------||---------------------------|

|----3----|   |----3----|

E  E  E  E   E    E    E   E    E    E      E  E  E   E  E  E  E  E
------------------------------------------|----------------------------|
--------------11h--12h--14----------------|----------------------------|
--8--0--7--0----------------10h--12h--13--|--12--0--0--10--0--0--8--0--|
------------------------------------------|----------------------------|

_______________________________________________
__________________________ |2.     |
|1.                        ||  |---3---|  |---3---|  |---3---|  |----3---|  |

| E  E  E  E  E  E  E  E   ||  E   E   E  E   E   E  E   E   E  E   E    E  |
---------------------------||-----------------------------------------------|
--------------------------*||-----------------------------------------------|
--7--0--5--0--4--0--1--0--*||------------------------0h--4h--7--0h--7h--10--|
---------------------------||--0h--3h--6--0h--6h--9-------------------------|

|----3----|   |----3----|

E  E  E  E  E  E  E  E     E  E  E  E   E    E    E   E    E    E
|---------------------------|------------------------------------------|
|*--7--------5--------------|--------------11h--12h--14----------------|
|*-----0--0-----0--0--5--0--|--8--0--7--0----------------10h--12h--13--|
|---------------------------|------------------------------------------|

____________________________
|1.         |

E  E  E  E  E  E  E  E   |  E  E  E  E  E  E  E  E    |
----------------------------|---------------------------||
----------------------------|--------------------------*||
--12--0--0--10--0--0--8--0--|--7--0--5--0--4--0--1--0--*||
----------------------------|---------------------------||

______________________________________________
|2.       |
| |---3---|  |---3---|  |---3---|  |----3---|  |

| E   E   E  E   E   E  E   E   E  E   E    E  |
-----------------------------------------------||
-----------------------------------------------||
------------------------0h--4h--7--0h--7h--10--||
--0h--3h--6--0h--6h--9-------------------------||

|--3--|   |--3--|  |--3--|  |--3--|     |--3--|  |--3--|

E  E  E   E  E  E  E  E  E  E  E  E     E  E  E  E  E  E  Q    H
--10--9--7------------------------------|----------------------------------|
------------10--9--7--9--7--6-----------|----------------------------------|
-------------------------------8--7--5--|----------------------------------|
----------------------------------------|--8--7--5--7--5--4--0-------------|

Tempo = 115
S  S S S S S S S S S S S S S S S    S  S S S S S S S S S S S S  S S  S
|------------------------------------|-------------------------------------|
|*-----------------------------------|-------------------------------------|
|*-----------------------------------|--------------------------------2h-5-|
|---1p-0-0-0---0-0-0---0-0-0-0-0-0-0-|--1p-0-0-0---0-0-0---0-0-0-4p-0------|

______________________________________
|1.  |

S  S S S S S S S S S S S S S S S |  S  S S S S S S S S S S S S  S S  S  |
-----------------------------------|--------------------------------------||
-----------------------------------|-------------------------------------*||
-----------------------------------|--------------------------------2h-5-*||
--1p-0-0-0---0-0-0---0-0-0-0-0-0-0-|--1p-0-0-0---0-0-0---0-0-0-4p-0-------||

_____________________
|2.      |

| Q    Q    Q    Q    |    S  S S S S S S S S S S S S S S S
----------------------||------------------------------------|
----------------------||*-----------------------------------|
------------2----5----||*-----------------------------------|
--0----4--------------||---1p-0-0-0---0-0-0---0-0-0-0-0-0-0-|

S  S S S S S S S S S S S S  S S  S    S  S S S S S S S S S S S S S S S
-------------------------------------|-----------------------------------|
-------------------------------------|-----------------------------------|
--------------------------------2h-5-|-----------------------------------|
--1p-0-0-0---0-0-0---0-0-0-4p-0------|--1p-0-0-0---0-0-0---0-0-0-0-0-0-0-|

_____________________________________  __________________________________
|1.      ||2.  |

| S  S S S S S S S S S S S S  S S  S  ||  S  S S S S S S S S S S S S S E  |
--------------------------------------||----------------------------------|
-------------------------------------*||----------------------------------|
--------------------------------2h-5-*||-------------------2-3-2----------|
--1p-0-0-0---0-0-0---0-0-0-4p-0-------||--1p-0-0-0---0-0-0-------2-4-5-4--|

S  S S S S S S S S S S S S S S S    S  S S S S S S S S S S S S  S S  S
|------------------------------------|-------------------------------------|
|*-----------------------------------|-------------------------------------|
|*-----------------------------------|--------------------------------2h-5-|
|---1p-0-0-0---0-0-0---0-0-0-0-0-0-0-|--1p-0-0-0---0-0-0---0-0-0-4p-0------|

______________________________________
|1.  |

S  S S S S S S S S S S S S S S S |  S  S S S S S S S S S S S S  S S  S  |
-----------------------------------|--------------------------------------||
-----------------------------------|-------------------------------------*||
-----------------------------------|--------------------------------2h-5-*||
--1p-0-0-0---0-0-0---0-0-0-0-0-0-0-|--1p-0-0-0---0-0-0---0-0-0-4p-0-------||

____________________________
|2.     |

| S  S S S S S S S Q    Q    |
-----------------------------||
-----------------------------||
-------------------5----5----||
--1p-0-0-0---0-0-0-----------||

*Chorus*
E.  E.  E  S S S S      E.  E.  E  S S S S Q
| |---------------------| |--------------------------| |
|3|---------------------|4|--------------------------|3|
|4|------1---3----------|4|------1---3---------------|4|
| |--3----------1-3-3-3-| |--3----------1-3-3-3-3----| |

E.  E.  E  S S S S      E.  E.  E  S S S S E       E.  E.  E  S S S S
| |---------------------| |------------------------| |---------------------| |
|3|---------------------|7|------------------------|3|---------------------|4|
|4|------1---3----------|8|------1---3-------------|4|------1---3----------|4|
| |--3----------1-3-3-3-| |--3----------1-3-3-3-3--| |--3----------1-3-3-3-| |

E.  E.  E  S S S S Q         E.  E.  E  S S S S      E.  E.  E  Q    Q
| |--------------------------| |---------------------| |-----------------------|
|4|--------------------------|3|---------------------|4|-----------------------|
|4|------1---3---------------|4|------1---3----------|4|------1---3--6----5----|
| |--3----------1-3-3-3-3----| |--3----------1-3-3-3-| |--3--------------------|

--------------------||
-----------8--------||
--4-----------------||
--------------------||

*End Chorus*
Tempo = 230
E  E  E  E  E  E  E  E
||---------------------------|
||*--7--------5--------------|
||*-----0--0-----0--0--5--0--|
||---------------------------|

|----3----|   |----3----|

E  E  E  E   E    E    E   E    E    E      E  E  E   E  E  E  E  E
------------------------------------------|----------------------------|
--------------11h--12h--14----------------|----------------------------|
--8--0--7--0----------------10h--12h--13--|--12--0--0--10--0--0--8--0--|
------------------------------------------|----------------------------|

_______________________________________________
__________________________ |2.    |
|1.                        ||  |---3---|  |---3---|  |---3---|  |----3---|  |

| E  E  E  E  E  E  E  E   ||  E   E   E  E   E   E  E   E   E  E   E    E  |
---------------------------||-----------------------------------------------|
--------------------------*||-----------------------------------------------|
--7--0--5--0--4--0--1--0--*||------------------------0h--4h--7--0h--7h--10--|
---------------------------||--0h--3h--6--0h--6h--9-------------------------|

|----3----|   |----3----|

E  E  E  E  E  E  E  E     E  E  E  E   E    E    E   E    E    E
|---------------------------|------------------------------------------|
|*--7--------5--------------|--------------11h--12h--14----------------|
|*-----0--0-----0--0--5--0--|--8--0--7--0----------------10h--12h--13--|
|---------------------------|------------------------------------------|

___________________________
|1.|

E  E  E   E  E  E  E  E  |  E  E  E  E  E  E  E  E   |
----------------------------|---------------------------||
----------------------------|--------------------------*||
--12--0--0--10--0--0--8--0--|--7--0--5--0--4--0--1--0--*||
----------------------------|---------------------------||

___________________________
|2.                         |

|  E   E   E   E   H        |
----------------------------||
--------------11--14--------||
----------12----------------||
--12--15--------------------||

*Bridge*
|---3---|   |---3---|   |---3--|   |---3--|

E   E   E   E   E   E   E   E  E   E   E  E
--15--14--12--14--12--14--12--10--9--12--10--9--|
------------------------------------------------|
------------------------------------------------|
------------------------------------------------|

|--3--|   |--3--|              |--3--|      |--3--|      |--3--|

E  E  E   E  E  E  H           E  E  E  S S E  E  E  S S E  E  E
--10--9--7--10--9--7--6--------|-------------------------------------|
-------------------------------|--8--7--5--7-5-7--5--3--5-3-5--3--2--|
-------------------------------|-------------------------------------|
-------------------------------|-------------------------------------|

H        H           E  S S S S S S S S S S S S S S
--3--------3--------|---------------------------------|
--1--------1--------|---------------------------------|
--------------------|---------------------------------|
--------------------|--4--4-4---4-4-4---4-4-4-4-4-4-4-|

E  S S S S S S S S S S S S S S
---------------------------------||
---------------------------------||
-----------------5-5-5-5-5-5-5-5-||
--4--4-4---4-4-4-----------------||

S  S S S S S S S S S S S S S S S
||------------------------------------|
||*-----------------------------------|
||*-----------------------------------|
||---1p-0-0-0---0-0-0---0-0-0-0-0-0-0-|

S  S S S S S S S S S S S S  S S  S    S  S S S S S S S S S S S S S S S
-------------------------------------|-----------------------------------|
-------------------------------------|-----------------------------------|
--------------------------------2h-5-|-----------------------------------|
--1p-0-0-0---0-0-0---0-0-0-4p-0------|--1p-0-0-0---0-0-0---0-0-0-0-0-0-0-|

_____________________________________  __________________________________
|1.      ||2.  |

| S  S S S S S S S S S S S S  S S  S  ||  S  S S S S S S S S S S S S S E  |
--------------------------------------||----------------------------------|
-------------------------------------*||----------------------------------|
--------------------------------2h-5-*||-------------------2-3-2----------|
--1p-0-0-0---0-0-0---0-0-0-4p-0-------||--1p-0-0-0---0-0-0-------2-4-5-4--|

S  S S S S S S S S S S S S S S S    S  S S S S S S S S S S S S  S S  S
|------------------------------------|-------------------------------------|
|*-----------------------------------|-------------------------------------|
|*-----------------------------------|--------------------------------2h-5-|
|---1p-0-0-0---0-0-0---0-0-0-0-0-0-0-|--1p-0-0-0---0-0-0---0-0-0-4p-0------|

______________________________________
|1.  |

S  S S S S S S S S S S S S S S S |  S  S S S S S S S S S S S S  S S  S  |
-----------------------------------|--------------------------------------||
-----------------------------------|-------------------------------------*||
-----------------------------------|--------------------------------2h-5-*||
--1p-0-0-0---0-0-0---0-0-0-0-0-0-0-|--1p-0-0-0---0-0-0---0-0-0-4p-0-------||

____________________________
|2.     |

| S  S S S S S S S Q    Q    |
-----------------------------||
-----------------------------||
-------------------5----5----||
--1p-0-0-0---0-0-0-----------||

*Chorus*
E.  E.  E  S S S S      E.  E.  E  S S S S Q
| |---------------------| |--------------------------| |
|3|---------------------|4|--------------------------|3|
|4|------1---3----------|4|------1---3---------------|4|
| |--3----------1-3-3-3-| |--3----------1-3-3-3-3----| |

E.  E.  E  S S S S      E.  E.  E  S S S S E       E.  E.  E  S S S S
| |---------------------| |------------------------| |---------------------| |
|3|---------------------|7|------------------------|3|---------------------|4|
|4|------1---3----------|8|------1---3-------------|4|------1---3----------|4|
| |--3----------1-3-3-3-| |--3----------1-3-3-3-3--| |--3----------1-3-3-3-| |

E.  E.  E  S S S S Q         E.  E.  E  S S S S      E.  E.  E  Q    Q
| |--------------------------| |---------------------| |-----------------------|
|4|--------------------------|3|---------------------|4|-----------------------|
|4|------1---3---------------|4|------1---3----------|4|------1---3--6----5----|
| |--3----------1-3-3-3-3----| |--3----------1-3-3-3-| |--3--------------------|

--------------------||
-----------8--------||
--4-----------------||
--------------------||

*End Chorus*
Tempo = 230
E  E  E  E  E  E  E  E
||---------------------------|
||*--7--------5--------------|
||*-----0--0-----0--0--5--0--|
||---------------------------|

|----3----|   |----3----|

E  E  E  E   E    E    E   E    E    E      E  E  E   E  E  E  E  E
------------------------------------------|----------------------------|
--------------11h--12h--14----------------|----------------------------|
--8--0--7--0----------------10h--12h--13--|--12--0--0--10--0--0--8--0--|
------------------------------------------|----------------------------|

_______________________________________________
__________________________ |2.    |
|1.                        ||  |---3---|  |---3---|  |---3---|  |----3---|  |

| E  E  E  E  E  E  E  E   ||  E   E   E  E   E   E  E   E   E  E   E    E  |
---------------------------||-----------------------------------------------|
--------------------------*||-----------------------------------------------|
--7--0--5--0--4--0--1--0--*||------------------------0h--4h--7--0h--7h--10--|
---------------------------||--0h--3h--6--0h--6h--9-------------------------|

|----3----|   |----3----|

E  E  E  E  E  E  E  E     E  E  E  E   E    E    E   E    E    E
||---------------------------|------------------------------------------|
||*--7--------5--------------|--------------11h--12h--14----------------|
||*-----0--0-----0--0--5--0--|--8--0--7--0----------------10h--12h--13--|
||---------------------------|------------------------------------------|

E  E  E   E  E  E  E  E     E  E  E  E  E  E  E  E
----------------------------|---------------------------||
----------------------------|--------------------------*||
--12--0--0--10--0--0--8--0--|--7--0--5--0--4--0--1--0--*||
----------------------------|---------------------------||

*Bridge to Solo*
|-------------------|-------------------|
|-------------------|-------------------|
|--0----------------|--L----------------|
|-------------------|-------------------|

-------------------|-------------------||
-------------------|-------------------||
--L----------------|--L----------------||
-------------------|-------------------||

*Solo*
E  E  E  E  E  E  E  E
|--------------------------|
|--------------------------|
|--7--------5--------------|
|-----0--0-----0--0--5--0--|

E  E  E  E  E  E  E  E     E  E  E  E  E  E  E  E
--------------------------|--------------------------|
--------------------------|--------------------------|
--------------------------|--7--------5--------------|
--8--0--7--0--0--0--0--0--|-----0--0-----0--0--5--0--|

|---3---|  |---3---|

E  E  E  E  E   E   E  E   E   E     E  E  E  E  E  E  E  E
------------------------------------|--------------------------|
------------------------------------|--------------------------|
-------------------------5h--7h--8--|--7--------5--------------|
--8--0--7--0--4h--5h--7-------------|-----0--0-----0--0--5--0--|

E  E  E  E  E  E  E  E     E  E  E  E  E  E  E  E     E  E  E  E  Q    Q
--------------------------|--------------------------|------------------------|
--------------------------|--------------------------|------------------------|
--------------------------|--7--------5--------------|------------------------|
--8--0--7--0--0--0--0--0--|-----0--0-----0--0--5--0--|--7--0--0--1--L----1----|

E  E  E  E  E  E  E  E     E  E  E  E  E  E  E  E
--------------------------|--------------------------|
--------------------------|--------------------------|
--7--------5--------------|--------------------------|
-----0--0-----0--0--5--0--|--8--0--7--0--0--0--0--0--|

|---3---|  |---3---|

E  E  E  E  E  E  E  E     E  E  E  E  E   E   E  E   E   E
--------------------------|------------------------------------|
--------------------------|------------------------------------|
--7--------5--------------|-------------------------5h--7h--8--|
-----0--0-----0--0--5--0--|--8--0--7--0--4h--5h--7-------------|

E  E  E  E  E  E  E  E     E  E  E  E  E  E  E  E
--------------------------|--------------------------|
--------------------------|--------------------------|
--7--------5--------------|--------------------------|
-----0--0-----0--0--5--0--|--8--0--7--0--0--0--0--0--|

|----3----|

E  E  E  E  E  E  E  E     E  E  E  E  Q    Q       Q    Q    Q    S S S S
--------------------------|------------------------|-------------------------|
--------------------------|------------------------|-------------------------|
--7--------5--------------|------------------------|--4--------------2-4-4-4-|
-----0--0-----0--0--5--0--|--7--0--0--1--L----1----|-------0----2------------|

Tempo = 115
|----3----|

Q    Q    Q    S S S S
| |-------------------------| |
|3|-------------------------|4|
|4|--4--------------2-4-4-4-|4|
| |-------0----2------------| |

|----3----|                      |----3----|

Q    Q    Q    S S S S Q         Q    Q    Q    S S S S
| |------------------------------| |-------------------------| |
|4|------------------------------|3|-------------------------|4|
|4|--4--------------2-4-4-4-4----|4|--4--------------2-4-4-4-|4|
| |-------0----2-----------------| |-------0----2------------| |

|----3----|                      |----3----|

Q    Q    Q    S S S S Q         Q    Q    Q    S S S S
| |------------------------------| |-------------------------| |
|4|------------------------------|3|-------------------------|4|
|4|--4--------------2-4-4-4-4----|4|--4--------------2-4-4-4-|4|
| |-------0----2-----------------| |-------0----2------------| |

|----3----|                      |----3----|

Q    Q    Q    S S S S Q         Q    Q    Q    S S S S
| |------------------------------| |-------------------------| |
|4|------------------------------|3|-------------------------|4|
|4|--4--------------2-4-4-4-4----|4|--4--------------2-4-4-4-|4|
| |-------0----2-----------------| |-------0----2------------| |

|----3----|

Q    Q    Q    S S S S Q
| |------------------------------||
|4|------------------------------||
|4|--4--------------2-4-4-4-4----||
| |-------0----2-----------------||

*After Solo*
E.  S H           E.  S E  S S S S S S
||-----------------|-----------------------|
||-----------------|-----------------------|
||--6---6----------|--6---6-L--6-4-7-6-4---|
||-----------------|---------------------5-|

E.  S H           E.  S E  S S S S S S      E.  E.  E  E     E.  E.  E  E
-----------------|-----------------------| |----------------|----------------|
-----------------|-----------------------|5|----------------|----------------|
--6---6----------|--6---6-L--6-4-7-6-4---|8|--6---6---6--4--|--6---6---6--4--|
-----------------|---------------------5-| |----------------|----------------|

E.  E.  E   E     E.  E.   E   E     E.   E.   E   E      E.   E.   E   E
-----------------|------------------|-------------------|--10---12---14--15--|
-----------------|--7---8---10--11--|--8---10---11--13--|--------------------|
--6---7---9--10--|------------------|-------------------|--------------------|
-----------------|------------------|-------------------|--------------------|

E.  E.   E   E     E.   E.   E  E          E  E  E  E  E  S S Q
------------------|------------------|| ||---------------------------| |
------------------|---------------9--||4||*--------------------------|3|
------------------|--8---10---11-----||4||*--------------------------|4|
--7---8---10--11--|------------------|| ||---8--------8-----6-8-9----| |

E  E  E  E  Q       E  E  E  E  Q       E  E  E  E  E  E
| |-------------------|-------------------|--------------------|
|3|-------------------|-------------------|--------------------|
|4|-----------6--L----|-------------------|-----------8--L--7--|
| |--L--0--L----------|--8--------9--L----|--8-----------------|

Q    E  E  E  S S    Q    S S  Q.              W
--------------------|--------------------|| ||---8----------------|
--------------------|-------------------*||4||*--8----------------|
--------------------|-------7-8-10------*||4||*--6----------------|
--8----8--------6-7-|--8-----------------|| ||--------------------|

H        H           W                   H        H
--L-----------------|--6----------------|--L------------------||
--L-----------------|--6----------------|--L-----------------*||
--L-----------------|--4----------------|--L-----------------*||
-----------2--------|-------------------|-----------5---------||

S S S S E  S S S S E  S S S S    S S S S E  S S S S S S Q
--------------------------------|------------------------------||
--------------------------------|------------------------------||
--------------------------------|------------------------------||
--5-5-5-5----5-5-5-5----5-5-5-5-|--5-5-5-5----5-5-5-5-5-5-0----||

*Bridge* (2 Bars)
Tempo = 115
S  S S S S S S S S S S S S S S S    S  S S S S S S S S S S S S  S S  S
|------------------------------------|-------------------------------------|
|*-----------------------------------|-------------------------------------|
|*-----------------------------------|--------------------------------2h-5-|
|---1p-0-0-0---0-0-0---0-0-0-0-0-0-0-|--1p-0-0-0---0-0-0---0-0-0-4p-0------|

______________________________________
|1.  |

S  S S S S S S S S S S S S S S S |  S  S S S S S S S S S S S S  S S  S  |
-----------------------------------|--------------------------------------||
-----------------------------------|-------------------------------------*||
-----------------------------------|--------------------------------2h-5-*||
--1p-0-0-0---0-0-0---0-0-0-0-0-0-0-|--1p-0-0-0---0-0-0---0-0-0-4p-0-------||

________________________________________
|2. |
| |--3--|    |-3-|    |--3-|    |-3-|    |

| S  S  S E  S S S E  S  S S E  S S S E  |
-----------------------------------------||
-----------------------------------------||
-----------------------------------------||
--0h-4p-0-0--4-7-4-4--7-10-7-7--4-7-4-1--||

S  S S S S S S S S S S S S S S S    S  S S S S S S S S S S S S  S S  S
|------------------------------------|-------------------------------------|
|*-----------------------------------|-------------------------------------|
|*-----------------------------------|--------------------------------2h-5-|
|---1p-0-0-0---0-0-0---0-0-0-0-0-0-0-|--1p-0-0-0---0-0-0---0-0-0-4p-0------|

______________________________________
|1.  |

S  S S S S S S S S S S S S S S S |  S  S S S S S S S S S S S S  S S  S  |
-----------------------------------|--------------------------------------||
-----------------------------------|-------------------------------------*||
-----------------------------------|--------------------------------2h-5-*||
--1p-0-0-0---0-0-0---0-0-0-0-0-0-0-|--1p-0-0-0---0-0-0---0-0-0-4p-0-------||

____________________________
|2.     |

| S  S S S S S S S Q    Q    |
-----------------------------||
-----------------------------||
-------------------5----5----||
--1p-0-0-0---0-0-0-----------||

*Chorus*
E.  E.  E  S S S S      E.  E.  E  S S S S Q
| |---------------------| |--------------------------| |
|3|---------------------|4|--------------------------|3|
|4|------1---3----------|4|------1---3---------------|4|
| |--3----------1-3-3-3-| |--3----------1-3-3-3-3----| |

E.  E.  E  S S S S      E.  E.  E  S S S S E       E.  E.  E  S S S S
| |---------------------| |------------------------| |---------------------| |
|3|---------------------|7|------------------------|3|---------------------|4|
|4|------1---3----------|8|------1---3-------------|4|------1---3----------|4|
| |--3----------1-3-3-3-| |--3----------1-3-3-3-3--| |--3----------1-3-3-3-| |

E.  E.  E  S S S S Q         E.  E.  E  S S S S      E.  E.  E  Q    Q
| |--------------------------| |---------------------| |-----------------------|
|4|--------------------------|3|---------------------|4|-----------------------|
|4|------1---3---------------|4|------1---3----------|4|------1---3--6----5----|
| |--3----------1-3-3-3-3----| |--3----------1-3-3-3-| |--3--------------------|

--------------------||
-----------8--------||
--4-----------------||
--------------------||

*End Chorus -> Ending*
Tempo = 230
|----3----|   |----3----|

E  E  E  E  E  E  E  E     E  E  E  E   E    E    E   E    E    E
|---------------------------|------------------------------------------|
|*--7--------5--------------|--------------11h--12h--14----------------|
|*-----0--0-----0--0--5--0--|--8--0--7--0----------------10h--12h--13--|
|---------------------------|------------------------------------------|

____________________________
|1.         |

E  E  E  E  E  E  E  E   |  E  E  E  E  E  E  E  E    |
----------------------------|---------------------------||
----------------------------|--------------------------*||
--12--0--0--10--0--0--8--0--|--7--0--5--0--4--0--1--0--*||
----------------------------|---------------------------||

_______________________________________________
|2.|
|  |---3---|  |---3---|  |---3---|  |----3---|  |

|  E   E   E  E   E   E  E   E   E  E   E    E  |    E  E  E  E  E  E  E  E
|-----------------------------------------------||---------------------------|
|-----------------------------------------------||*--7--------5--------------|
|------------------------0h--4h--7--0h--7h--10--||*-----0--0-----0--0--5--0--|
|--0h--3h--6--0h--6h--9-------------------------||---------------------------|

|----3----|   |----3----|

E  E  E  E   E    E    E   E    E    E      E  E  E   E  E  E  E  E
------------------------------------------|----------------------------|
--------------11h--12h--14----------------|----------------------------|
--8--0--7--0----------------10h--12h--13--|--12--0--0--10--0--0--8--0--|
------------------------------------------|----------------------------|

E  E  E  E  E  E  E  E       Q.     Q.     Q       Q.     Q.     Q
---------------------------||---------------------|---------------------|
--------------------------*||---------------------|---------------------|
--7--0--5--0--4--0--1--0--*||--0-------------1----|--0-------------1----|
---------------------------||---------3-----------|---------3-----------|

|----3----|    |----3----|

E  E  E  E  E  E  E  E     E  E  E  E   E    E    E    E    E    E
|---------------------------|--------------------------------------------|
|*--------------------------|--------------------------------------------|
|*--7--------5--------------|--------------11h--12h--14h-----------------|
|------0--0-----0--0--5--0--|--8--0--7--0-----------------10h--12h--13h--|

E  E  E   E  E  E  E  E     E  E  E  E  E  E  E  E
----------------------------|---------------------------||
----------------------------|--------------------------*||
----------------------------|--------------------------*||
--12--0--0--10--0--0--8--0--|--7--0--5--0--4--0--1--0---||

E  E  E  E  H        Q       E  E  E  E  H        Q
| |----------------------------|----------------------------|
|5|----------------------------|----------------------------|
|4|--7--------5----------------|--7--------5----------------|
| |-----0--0-------------------|-----0--0-------------------|

E  E  E  E  H        Q       E  E  E  E  E  E  E  E  E  E
----------------------------|--------------------------------| |
----------------------------|--------------------------------|4|
--7--------5----------------|--7--------5--------------------|4|
-----0--0-------------------|-----0--0-----0--0--8--0--0--7--| |

E  E  E  E  E  E  E  E     W                   W
| |--------------------------|-------------------|-------------------|
|4|--------------------------|-------------------|-------------------|
|4|--------------------------|-------------------|-------------------|
| |--0--0--5--0--0--4--0--0--|--1----------------|--L----------------|

E  E  E  E  E  E  E  E     E  E  E  E  E  E  E  E
--------------------------|--------------------------||
--------------------------|--------------------------||
--------------------------|--------------------------||
--L--0--0--0-----0--0--0--|-----0--0--0--0--0--0--0--||

Duration Legend
---------------

E - 8th
. - note dotted
----------------

x - dead note
(n) - ghost note
NH - natural harmonic
AH - artificial harmonic
TH - tapped harmonic
SH - semi harmonic
PH - pitch harmonic
h - hammer on
b - bend
br - bendRelease
pb - preBend
pbr - preBendRelease
brb - bendReleaseBend
S - shift slide
s - legato slide
/ -  slide into from below or out of upwards
\ -  slide into from above or out of downwards
~ - vibrato
W - wide vibrato
T - tapping
						
# Artist Title Tabdesignator