Sepultura

Mass Hypnosis


							
its a 4 string bass
E||------|------|------|------|------|------|----------------------------------|
B||------|------|------|------|------|------|----------------------------------|
G||------|------|------|------|------|------|----------------------------------|
D||------|------|------|------|------|------|----------------------------------|
A||------|------|------|------|------|------|----------------------------------|
E||------|------|------|------|------|------|--0-0-0-0-0-0-0-0-0-0-0-0-0-0-0-0-|

----------------------|----------------------------------|
----------------------|----------------------------------|
----------------------|----------------------------------|
----------------------|----------------------------------|
----------------------|----------------------------------|
--0----0----0----0----|--0-0-0-0-0-0-0-0-0-0-0-0-0-0-0-0-|

----------------------|----------------------------------|
----------------------|----------------------------------|
----------------------|----------------------------------|
----------------------|----------------------------------|
----------------------|----------------------------------|
--0----0----0----0----|--0-0-0-0-0-0-0-0-0-0-0-0-0-0-0-0-|

----------------------|----------------------------------|
----------------------|----------------------------------|
----------------------|----------------------------------|
----------------------|----------------------------------|
----------------------|----------------------------------|
--0----0----0----0----|--0-0-0-0-0-0-0-0-0-0-0-0-0-0-0-0-|

----------------------|----------------------------------|
----------------------|----------------------------------|
----------------------|----------------------------------|
----------------------|----------------------------------|
----------------------|----------------------------------|
--0----0----0----0----|--0-0-0-0-0-0-0-0-0-0-0-0-0-0-0-0-|

----------------------|----------------------------------|
----------------------|----------------------------------|
----------------------|----------------------------------|
----------------------|----------------------------------|
----------------------|----------------------------------|
--0----0----0----0----|--0-0-0-0-0-0-0-0-0-0-0-0-0-0-0-0-|

----------------------|---------------------------|
----------------------|---------------------------|
----------------------|---------------------------|
----------------------|---------------------------|
----------------------|---------------------------|
--0----0----0----0----|--0--0--0--0--0-0-0--0--0--|

-----------------------------|----------------------------|
-----------------------------|----------------------------|
-----------------------------|----------------------------|
-----------------------------|----------------------------|
-----------------------------|----------------------------|
--0-0-0--0--0--0-0-0--0-0-0--|--0-0-0--0--0--0-0-0--0--0--|

-----------------------------|----------------------------|
-----------------------------|----------------------------|
-----------------------------|----------------------------|
-----------------------------|----------------------------|
-----------------------------|----------------------------|
--0-0-0--0--0--0-0-0--0-0-0--|--0-0-0--0--0--0-0-0--0--0--|

---------------------------|----------------------------|
---------------------------|----------------------------|
---------------------------|----------------------------|
---------------------------|----------------------------|
---------------------------|----------------------------|
--0-0-0--0--0--0--0--0--0--|--0-0-0--0--0--0-0-0--0--0--|

---------------------------|----------------------------|
---------------------------|----------------------------|
---------------------------|----------------------------|
---------------------------|----------------------------|
---------------------------|----------------------------|
--0-0-0--0--0--0--0--0--0--|--0-0-0--0--0--0-0-0--0--0--|

---------------------------|----------------------------|----------------------|
---------------------------|----------------------------|----------------------|
---------------------------|----------------------------|----------------------|
---------------------------|----------------------------|----------------------|
---------------------------|----------------------------|----------------------|
--0-0-0--0--0--0--0--0--0--|--0-0-0--0--0--0-0-0--0--0--|--0--0----0--0--------|

----------------------------------|----------------------------------|
----------------------------------|----------------------------------|
----------------------------------|----------------------------------|
----------------------------------|----------------------------------|
----------------------------------|----------------------------------|
--2-2-2-2-0-0-0-0-2-2-2-2-0-0-0-0-|--2-2-2-2-0-0-0-0-4-4-4-4-0-0-0-0-|

----------------------------------|----------------------------------|
----------------------------------|----------------------------------|
----------------------------------|----------------------------------|
----------------------------------|----------------------------------|
----------------------------------|----------------------------------|
--2-2-2-2-0-0-0-0-2-2-2-2-0-0-0-0-|--2-2-2-2-0-0-0-0-4-4-4-4-0-0-0-0-|

----------------------------------|----------------------------------|
----------------------------------|----------------------------------|
----------------------------------|----------------------------------|
----------------------------------|----------------------------------|
----------------------------------|----------------------------------|
--2-2-2-2-0-0-0-0-2-2-2-2-0-0-0-0-|--2-2-2-2-0-0-0-0-4-4-4-4-0-0-0-0-|

----------------------------------|----------------------------------|
----------------------------------|----------------------------------|
----------------------------------|----------------------------------|
----------------------------------|----------------------------------|
----------------------------------|----------------------------------|
--2-2-2-2-0-0-0-0-2-2-2-2-0-0-0-0-|--2-2-2-2-0-0-0-0-4-4-4-4-0-0-0-0-|

----------------------------------|----------------------------------|
----------------------------------|----------------------------------|
----------------------------------|----------------------------------|
----------------------------------|----------------------------------|
----------------------------------|----------------------------------|
--2-2-2-2-0-0-0-0-2-2-2-2-0-0-0-0-|--2-2-2-2-0-0-0-0-4-4-4-4-0-0-0-0-|

----------------------------------|----------------------------------|
----------------------------------|----------------------------------|
----------------------------------|----------------------------------|
----------------------------------|----------------------------------|
----------------------------------|----------------------------------|
--2-2-2-2-0-0-0-0-2-2-2-2-0-0-0-0-|--2-2-2-2-0-0-0-0-4-4-4-4-0-0-0-0-|

----------------------------------|----------------------------------|
----------------------------------|----------------------------------|
----------------------------------|----------------------------------|
----------------------------------|----------------------------------|
----------------------------------|----------------------------------|
--2-2-2-2-0-0-0-0-2-2-2-2-0-0-0-0-|--2-2-2-2-0-0-0-0-4-4-4-4-0-0-0-0-|

----------------------------------|----------------------------------|
----------------------------------|----------------------------------|
----------------------------------|----------------------------------|
----------------------------------|----------------------------------|
----------------------------------|----------------------------------|
--2-2-2-2-0-0-0-0-2-2-2-2-0-0-0-0-|--2-2-2-2-0-0-0-0-4-4-4-4-0-0-0-0-|

--------------------------|--------------------|--------------------------|
--------------------------|--------------------|--------------------------|
--------------------------|--------------------|--------------------------|
--------------------------|--------------------|--------------------------|
--------------------------|--2--------1--------|--------------------------|
--0--0--0--0--0--0--0--0--|--------------------|--0--0--0--0--0--0--0--0--|

--------------------|----------------------------------|
--------------------|----------------------------------|
--------------------|----------------------------------|
--------------------|----------------------------------|
--2--------1--------|----------------------------------|
--------------------|--2-2-2-2-0-0-0-0-2-2-2-2-0-0-0-0-|

----------------------------------|----------------------------------|
----------------------------------|----------------------------------|
----------------------------------|----------------------------------|
----------------------------------|----------------------------------|
----------------------------------|----------------------------------|
--2-2-2-2-0-0-0-0-4-4-4-4-0-0-0-0-|--2-2-2-2-0-0-0-0-2-2-2-2-0-0-0-0-|

----------------------------------|----------------------------------|
----------------------------------|----------------------------------|
----------------------------------|----------------------------------|
----------------------------------|----------------------------------|
----------------------------------|----------------------------------|
--2-2-2-2-0-0-0-0-4-4-4-4-0-0-0-0-|--2-2-2-2-0-0-0-0-2-2-2-2-0-0-0-0-|

----------------------------------|----------------------------------|
----------------------------------|----------------------------------|
----------------------------------|----------------------------------|
----------------------------------|----------------------------------|
----------------------------------|----------------------------------|
--2-2-2-2-0-0-0-0-4-4-4-4-0-0-0-0-|--2-2-2-2-0-0-0-0-2-2-2-2-0-0-0-0-|

----------------------------------|--------------------------|
----------------------------------|--------------------------|
----------------------------------|--------------------------|
----------------------------------|--------------------------|
----------------------------------|--------------------------|
--2-2-2-2-0-0-0-0-4-4-4-4-0-0-0-0-|--0--0--0--0--0--0--0--0--|

--------------------|--------------------------|--------------------|
--------------------|--------------------------|--------------------|
--------------------|--------------------------|--------------------|
--------------------|--------------------------|--------------------|
--2--------1--------|--------------------------|--2--------1--------|
--------------------|--0--0--0--0--0--0--0--0--|--------------------|

--------------------------|--------------------|--------------------------|
--------------------------|--------------------|--------------------------|
--------------------------|--------------------|--------------------------|
--------------------------|--------------------|--------------------------|
--------------------------|--2--------1--------|--------------------------|
--0--0--0--0--0--0--0--0--|--------------------|--0--0--0--0--0--0--0--0--|

--------------------|--------------------------|----------------------|
--------------------|--------------------------|----------------------|
--------------------|--------------------------|----------------------|
--------------------|--------------------------|----------------------|
--2--------1--------|--------------------------|----------------------|
--------------------|--0--0--0--0--0--0--0--0--|--0----0----0----0----|

--------------------------|----------------------|--------------------------|
--------------------------|----------------------|--------------------------|
--------------------------|----------------------|--------------------------|
--------------------------|----------------------|--------------------------|
--------------------------|----------------------|--------------------------|
--0--0--0--0--0--0--0--0--|--0--0------0--0------|--0--0--0--0--0--0--0--0--|

----------------------|--------------------------|----------------------|
----------------------|--------------------------|----------------------|
----------------------|--------------------------|----------------------|
----------------------|--------------------------|----------------------|
----------------------|--------------------------|----------------------|
--0----0----0----0----|--0--0--0--0--0--0--0--0--|--0--0------0--0------|

----------------------------------|----------------------------------|
----------------------------------|----------------------------------|
----------------------------------|----------------------------------|
----------------------------------|----------------------------------|
----------------------------------|--------------------------3-3-3-3-|
--2-2-2-2-2-2-2-2-2-2-2-2-2-2-2-2-|--3-3-3-3-3-3-3-3-2-2-2-2---------|

----------------------------------|----------------------------------|
----------------------------------|----------------------------------|
----------------------------------|----------------------------------|
----------------------------------|----------------------------------|
----------------------------------|----------------------------------|
--2-2-2-2-2-2-2-2-2-2-2-2-2-2-2-2-|--3-3-3-3-3-3-3-3-0-0-0-0-3-3-3-3-|

----------------------------------|----------------------------------|
----------------------------------|----------------------------------|
----------------------------------|----------------------------------|
----------------------------------|----------------------------------|
----------------------------------|--------------------------3-3-3-3-|
--2-2-2-2-2-2-2-2-2-2-2-2-2-2-2-2-|--3-3-3-3-3-3-3-3-2-2-2-2---------|

----------------------------------|----------------------------------|
----------------------------------|----------------------------------|
----------------------------------|----------------------------------|
----------------------------------|----------------------------------|
----------------------------------|----------------------------------|
--2-2-2-2-2-2-2-2-2-2-2-2-2-2-2-2-|--3-3-3-3-3-3-3-3-0-0-0-0-3-3-3-3-|

----------------------------------|----------------------------------|
----------------------------------|----------------------------------|
----------------------------------|----------------------------------|
----------------------------------|----------------------------------|
----------------------------------|--------------------------3-3-3-3-|
--2-2-2-2-2-2-2-2-2-2-2-2-2-2-2-2-|--3-3-3-3-3-3-3-3-2-2-2-2---------|

----------------------------------|----------------------------------|
----------------------------------|----------------------------------|
----------------------------------|----------------------------------|
----------------------------------|----------------------------------|
----------------------------------|----------------------------------|
--2-2-2-2-2-2-2-2-2-2-2-2-2-2-2-2-|--3-3-3-3-3-3-3-3-0-0-0-0-3-3-3-3-|

----------------------------------|----------------------------------|
----------------------------------|----------------------------------|
----------------------------------|----------------------------------|
----------------------------------|----------------------------------|
----------------------------------|--------------------------3-3-3-3-|
--2-2-2-2-2-2-2-2-2-2-2-2-2-2-2-2-|--3-3-3-3-3-3-3-3-2-2-2-2---------|

----------------------------------|----------------------------------|
----------------------------------|----------------------------------|
----------------------------------|----------------------------------|
----------------------------------|----------------------------------|
----------------------------------|----------------------------------|
--2-2-2-2-2-2-2-2-2-2-2-2-2-2-2-2-|--3-3-3-3-3-3-3-3-0-0-0-0-3-3-3-3-|

----------------------------------|----------------------------------|
----------------------------------|----------------------------------|
----------------------------------|----------------------------------|
----------------------------------|----------------------------------|
----------------------------------|--------------------------3-3-3-3-|
--2-2-2-2-2-2-2-2-2-2-2-2-2-2-2-2-|--3-3-3-3-3-3-3-3-2-2-2-2---------|

----------------------------------|----------------------------------|
----------------------------------|----------------------------------|
----------------------------------|----------------------------------|
----------------------------------|----------------------------------|
----------------------------------|----------------------------------|
--2-2-2-2-2-2-2-2-2-2-2-2-2-2-2-2-|--3-3-3-3-3-3-3-3-0-0-0-0-3-3-3-3-|

----------------------------------|----------------------------------|
----------------------------------|----------------------------------|
----------------------------------|----------------------------------|
----------------------------------|----------------------------------|
----------------------------------|--------------------------3-3-3-3-|
--2-2-2-2-2-2-2-2-2-2-2-2-2-2-2-2-|--3-3-3-3-3-3-3-3-2-2-2-2---------|

----------------------------------|----------------------------------|
----------------------------------|----------------------------------|
----------------------------------|----------------------------------|
----------------------------------|----------------------------------|
----------------------------------|----------------------------------|
--2-2-2-2-2-2-2-2-2-2-2-2-2-2-2-2-|--3-3-3-3-3-3-3-3-0-0-0-0-3-3-3-3-|

---------------------------------|-------------------------|
---------------------------------|-------------------------|
---------------------------------|-------------------------|
---------------------------------|-------------------------|
---------------------------------|-------------------------|
--6--6-6-6-6-6-6-6-6-6-6-6-6-6-6-|--6----6-6-6-6-6----6----|

---------------------------------|-------------------------|
---------------------------------|-------------------------|
---------------------------------|-------------------------|
---------------------------------|-------------------------|
--7--7-7-7-7-7-7-7-7-7-7-7-7-7-7-|--7----7-7-7-7-7----7----|
---------------------------------|-------------------------|

---------------------------------|-------------------------|
---------------------------------|-------------------------|
---------------------------------|-------------------------|
---------------------------------|-------------------------|
---------------------------------|-------------------------|
--6--6-6-6-6-6-6-6-6-6-6-6-6-6-6-|--6----6-6-6-6-6----6----|

---------------------------------|-------------------------|-------------------|
---------------------------------|-------------------------|-------------------|
---------------------------------|-------------------------|-------------------|
---------------------------------|-------------------------|-------------------|
--7--7-7-7-7-7-7-7-7-7-7-7-7-7-7-|--7----7-7-7-7-7----7----|-------------------|
---------------------------------|-------------------------|--1----------------|

------------------|-------------------|------------------|---------------------|
------------------|-------------------|------------------|---------------------|
------------------|-------------------|------------------|---------------------|
------------------|-------------------|------------------|---------------------|
------------------|-------------------|------------------|---------------------|
------------------|--1----------------|------------------|--1------1------1----|

--------------------|-------------------------|------------------------|
--------------------|-------------------------|------------------------|
--------------------|-------------------------|------------------------|
--------------------|-------------------------|------------------------|
--------------------|--------------2----------|--------2----------2----|
----1----1----------|--1--1--1--1-------1--1--|--1--1-------1--1-------|

-------------------------|------------------------|-------------------------|
-------------------------|------------------------|-------------------------|
-------------------------|------------------------|-------------------------|
-------------------------|------------------------|-------------------------|
--------------2----------|--------2----------2----|--------------2----------|
--1--1--1--1-------1--1--|--1--1-------1--1-------|--1--1--1--1-------1--1--|

------------------------|-------------------------|------------------------|
------------------------|-------------------------|------------------------|
------------------------|-------------------------|------------------------|
------------------------|-------------------------|------------------------|
--------2----------2----|--------------2----------|--------2----------2----|
--1--1-------1--1-------|--1--1--1--1-------1--1--|--1--1-------1--1-------|

----------------------|--------------------------|--------------------------|
----------------------|--------------------------|--------------------------|
----------------------|--------------------------|--------------------------|
----------------------|--------------------------|--------------------------|
----------------------|--------------------------|--------------------------|
--0--0------0--0------|--1--1--1--1--1--1--1--1--|--1--1--1--1--1--1--1--1--|

--------------------------|--------------------------|
--------------------------|--------------------------|
--------------------------|--------------------------|
--------------------------|--------------------------|
--------------------------|--------------------------|
--1--1--1--1--1--1--1--1--|--1--1--1--1--1--1--1--1--|

--------------------------|--------------------------|
--------------------------|--------------------------|
--------------------------|--------------------------|
--------------------------|--------------------------|
--------------------------|--------------------------|
--1--1--1--1--1--1--1--1--|--1--1--1--1--1--1--1--1--|

--------------------------|--------------------------|
--------------------------|--------------------------|
--------------------------|--------------------------|
--------------------------|--------------------------|
--------------------------|--------------------------|
--1--1--1--1--1--1--1--1--|--1--1--1--1--1--1--1--1--|

--------------------------|--------------------------|
--------------------------|--------------------------|
--------------------------|--------------------------|
--------------------------|--------------------------|
--------------------------|--------------------------|
--4--4--4--4--4--4--4--4--|--4--4--4--4--4--4--4--4--|

--------------------------|--------------------------|
--------------------------|--------------------------|
--------------------------|--------------------------|
--------------------------|--------------------------|
--------------------------|--------------------------|
--4--4--4--4--4--4--4--4--|--4--4--4--4--4--4--4--4--|

--------------------------|--------------------------|
--------------------------|--------------------------|
--------------------------|--------------------------|
--------------------------|--------------------------|
--------------------------|--------------------------|
--4--4--4--4--4--4--4--4--|--4--4--4--4--4--4--4--4--|

--------------------------|--------------------------|
--------------------------|--------------------------|
--------------------------|--------------------------|
--------------------------|--------------------------|
--------------------------|--------------------------|
--4--4--4--4--4--4--4--4--|--4--4--4--4--4--4--4--4--|

--------------------------|-------------------|--------------------------|
--------------------------|-------------------|--------------------------|
--------------------------|-------------------|--------------------------|
--------------------------|-------------------|--------------------------|
--------------------------|-------------------|--------------------------|
--0--0--0--0--0--0--0--0--|--0----------------|--0--0--0--0--0--0--0--0--|

-------------------|--------------------------|-------------------|
-------------------|--------------------------|-------------------|
-------------------|--------------------------|-------------------|
-------------------|--------------------------|-------------------|
-------------------|--------------------------|-------------------|
--0----------------|--0--0--0--0--0--0--0--0--|--0----------------|

--------------------------|---------------------|-------------------|
--------------------------|---------------------|-------------------|
--------------------------|---------------------|-------------------|
--------------------------|---------------------|-------------------|
--------------------------|---------------------|-------------------|
--0--0--0--0--0--0--0--0--|--0--------0----0----|--0----------------|

------------------|-------------------|------------------|
------------------|-------------------|------------------|
------------------|-------------------|------------------|
------------------|-------------------|------------------|
------------------|--5----------------|------------------|
------------------|-------------------|------------------|

----------------------|----------------------|----------------------|
----------------------|----------------------|----------------------|
----------------------|----------------------|----------------------|
--3--------------3----|----------------------|--3--------------3----|
----------------------|----------------------|----------------------|
-------1----1---------|--1----1----1----1----|-------1----1---------|

----------------------|-------------------|------------------|
----------------------|-------------------|------------------|
----------------------|-------------------|------------------|
----------------------|-------------------|------------------|
----------------------|-------------------|------------------|
--1----1----1----1----|--0----------------|------------------|

-------------------|------------------|----------------------|
-------------------|------------------|----------------------|
-------------------|------------------|----------------------|
-------------------|------------------|--3--------------3----|
--5----------------|------------------|----------------------|
-------------------|------------------|-------1----1---------|

----------------------|----------------------|----------------------|
----------------------|----------------------|----------------------|
----------------------|----------------------|----------------------|
----------------------|--3--------------3----|----------------------|
----------------------|----------------------|----------------------|
--1----1----1----1----|-------1----1---------|--1----1----1----1----|

-------------------|------------------|-------------------|------------------|
-------------------|------------------|-------------------|------------------|
-------------------|------------------|-------------------|------------------|
-------------------|------------------|-------------------|------------------|
--3----------------|------------------|-------------------|------------------|
-------------------|------------------|--4----------------|------------------|

-------------------|------------------|-------------------|------------------|
-------------------|------------------|-------------------|------------------|
-------------------|------------------|-------------------|------------------|
-------------------|------------------|-------------------|------------------|
--3----------------|------------------|--6----------------|------------------|
-------------------|------------------|--4----------------|------------------|

-------------------|------------------|-------------------|------------------|
-------------------|------------------|-------------------|------------------|
-------------------|------------------|-------------------|------------------|
-------------------|------------------|-------------------|------------------|
--3----------------|------------------|-------------------|------------------|
-------------------|------------------|--4----------------|------------------|

-------------------|------------------|-------------------|------------------|
-------------------|------------------|-------------------|------------------|
-------------------|------------------|-------------------|------------------|
-------------------|------------------|-------------------|------------------|
--3----------------|------------------|-------------------|------------------|
-------------------|------------------|--4----------------|------------------|

-------------------|------------------|-------------------|------------------|
-------------------|------------------|-------------------|------------------|
-------------------|------------------|-------------------|------------------|
-------------------|------------------|-------------------|------------------|
--3----------------|------------------|-------------------|------------------|
-------------------|------------------|--4----------------|------------------|

-------------------|------------------|-------------------|------------------|
-------------------|------------------|-------------------|------------------|
-------------------|------------------|-------------------|------------------|
-------------------|------------------|-------------------|------------------|
--3----------------|------------------|-------------------|------------------|
-------------------|------------------|--4----------------|------------------|

------------------------|-----------------------|------------------------|
------------------------|-----------------------|------------------------|
------------------------|-----------------------|------------------------|
------------------------|-----------------------|------------------------|
------------------------|-----------------------|------------------------|
--3----3--3--3----3--3--|--3----3--0------0--3--|--3----3--3--3----3--3--|

-------------------|------------------------|-----------------------|
-------------------|------------------------|-----------------------|
-------------------|------------------------|-----------------------|
-------------------|------------------------|-----------------------|
--4----------------|------------------------|-----------------------|
-------------------|--3----3--3--3----3--3--|--3----3--0------0--3--|

------------------------|-------------------|------------------------|
------------------------|-------------------|------------------------|
------------------------|-------------------|------------------------|
------------------------|-------------------|------------------------|
------------------------|--4----------------|------------------------|
--3----3--3--3----3--3--|-------------------|--3----3--3--3----3--3--|

-----------------------|------------------------|-------------------|
-----------------------|------------------------|-------------------|
-----------------------|------------------------|-------------------|
-----------------------|------------------------|-------------------|
-----------------------|------------------------|--4----------------|
--3----3--0------0--3--|--3----3--3--3----3--3--|-------------------|

------------------------|-----------------------|------------------------|
------------------------|-----------------------|------------------------|
------------------------|-----------------------|------------------------|
------------------------|-----------------------|------------------------|
------------------------|-----------------------|------------------------|
--3----3--3--3----3--3--|--3----3--0------0--3--|--3----3--3--3----3--3--|

-------------------|-------------------|------------------|-------------------|
-------------------|-------------------|------------------|-------------------|
-------------------|-------------------|------------------|-------------------|
-------------------|-------------------|------------------|-------------------|
--4----------------|--3----------------|------------------|-------------------|
-------------------|-------------------|------------------|--4----------------|

------------------|-------------------|------------------|-------------------|
------------------|-------------------|------------------|-------------------|
------------------|-------------------|------------------|-------------------|
------------------|-------------------|------------------|-------------------|
------------------|--3----------------|------------------|--6----------------|
------------------|-------------------|------------------|-------------------|

-------------------|-------------------|------------------|-------------------|
-------------------|-------------------|------------------|-------------------|
-------------------|-------------------|------------------|-------------------|
-------------------|-------------------|------------------|-------------------|
--4----------------|--3----------------|------------------|-------------------|
-------------------|-------------------|------------------|--4----------------|

------------------|-------------------|------------------|-------------------|
------------------|-------------------|------------------|-------------------|
------------------|-------------------|------------------|-------------------|
------------------|-------------------|------------------|-------------------|
------------------|--3----------------|------------------|--6----------------|
------------------|-------------------|------------------|-------------------|

-------------------|----------------------------------|----------------------|
-------------------|----------------------------------|----------------------|
-------------------|----------------------------------|----------------------|
-------------------|----------------------------------|----------------------|
--4----------------|----------------------------------|----------------------|
-------------------|--0-0-0-0-0-0-0-0-0-0-0-0-0-0-0-0-|--0----0----0----0----|

----------------------------------|----------------------|
----------------------------------|----------------------|
----------------------------------|----------------------|
----------------------------------|----------------------|
----------------------------------|----------------------|
--0-0-0-0-0-0-0-0-0-0-0-0-0-0-0-0-|--0----0----0----0----|

----------------------------------|----------------------|
----------------------------------|----------------------|
----------------------------------|----------------------|
----------------------------------|----------------------|
----------------------------------|----------------------|
--0-0-0-0-0-0-0-0-0-0-0-0-0-0-0-0-|--0----0----0----0----|

----------------------------------|----------------------|
----------------------------------|----------------------|
----------------------------------|----------------------|
----------------------------------|----------------------|
----------------------------------|----------------------|
--0-0-0-0-0-0-0-0-0-0-0-0-0-0-0-0-|--0--0------0--0------|

----------------------------------|------------------------|
----------------------------------|------------------------|
----------------------------------|------------------------|
----------------------------------|------------------------|
----------------------------------|-------------------1----|
--0-0-0-0-0-0-0-0-0-0-0-0-0-0-0-0-|--0--0----0--0--0-------|

----------------------------------|------------------------|
----------------------------------|------------------------|
----------------------------------|------------------------|
----------------------------------|------------------------|
----------------------------------|-------------------1----|
--0-0-0-0-0-0-0-0-0-0-0-0-0-0-0-0-|--0--0----0--0--0-------|

----------------------------------|------------------------|
----------------------------------|------------------------|
----------------------------------|------------------------|
----------------------------------|------------------------|
----------------------------------|-------------------1----|
--0-0-0-0-0-0-0-0-0-0-0-0-0-0-0-0-|--0--0----0--0--0-------|

----------------------------------|------------------------|
----------------------------------|------------------------|
----------------------------------|------------------------|
----------------------------------|------------------------|
----------------------------------|-------------------1----|
--0-0-0-0-0-0-0-0-0-0-0-0-0-0-0-0-|--0--0----0--0--0-------|

----------------------------------|----------------------------------|
----------------------------------|----------------------------------|
----------------------------------|----------------------------------|
----------------------------------|----------------------------------|
----------------------------------|----------------------------------|
--2-2-2-2-0-0-0-0-2-2-2-2-0-0-0-0-|--2-2-2-2-0-0-0-0-4-4-4-4-0-0-0-0-|

----------------------------------|----------------------------------|
----------------------------------|----------------------------------|
----------------------------------|----------------------------------|
----------------------------------|----------------------------------|
----------------------------------|----------------------------------|
--2-2-2-2-0-0-0-0-2-2-2-2-0-0-0-0-|--2-2-2-2-0-0-0-0-4-4-4-4-0-0-0-0-|

----------------------------------|----------------------------------|
----------------------------------|----------------------------------|
----------------------------------|----------------------------------|
----------------------------------|----------------------------------|
----------------------------------|----------------------------------|
--2-2-2-2-0-0-0-0-2-2-2-2-0-0-0-0-|--2-2-2-2-0-0-0-0-4-4-4-4-0-0-0-0-|

----------------------------------|----------------------------------|
----------------------------------|----------------------------------|
----------------------------------|----------------------------------|
----------------------------------|----------------------------------|
----------------------------------|----------------------------------|
--2-2-2-2-0-0-0-0-2-2-2-2-0-0-0-0-|--2-2-2-2-0-0-0-0-4-4-4-4-0-0-0-0-|
						
# Artist Title Tabdesignator