Riley B King

Why I Sing The Blues


							
Tuning : E A D G 	Time Signature: 4/4
 |       |       |       |        |       |       |       |
|--------------------------------|--------------------------------|
|--------------------------------|--------------------------------|
|3---1---3-------3-------3---3---|----1---3-------3---1---3-------|
|--------------------------------|--------------------------------|

 |       |       |       |        |       |       |       |
|--------------------------------|--------------------------------|
|--------------------------------|--------------------------------|
|3---1---3-------3---1---3---3---|----1---3-------3---1---3-------|
|--------------------------------|--------------------------------|

 |       |       |       |        |       |       |       |
|--------------------------------|--------------------------------|
|3---1---3-------3---------------|----------------3---1---3-------|
|--------------------------------|--------------------------------|
|--------------------------------|--------------------------------|

 |       |       |       |        |       |       |       |
|--------------------------------|--------------------------------|
|--------------------------------|--------------------------------|
|3---1---3-------3-------3---3---|--------3-------3---1---3-------|
|--------------------------------|--------------------------------|

 |       |       |       |        |       |       |       |
|0-------0-------0-------0-------|--------------------------------|
|----3---------------3-------3---|----1---------------------------|
|--------------------------------|--------------------0-----------|
|--------------------------------|--------------------------------|

 |       |       |       |        |       |       |       |
|--------------------------------|--------------------------------|
|--------------------------------|--------------------------------|
|3-------3-------------------3---|----1---3-------------------1---|
|--------------------------------|----------------0---1---3-------|

 |       |       |       |        |       |       |       |
|--------------------------------|--------------------------------|
|--------------------------------|--------------------------------|
|3---1---3-------3---1---3---3---|----1---3-------3---1---3-------|
|--------------------------------|--------------------------------|

 |       |       |       |        |       |       |       |
|--------------------------------|--------------------------------|
|--------------------------------|--------------------------------|
|3---1---3-------3-----------3---|----1---3-------3---1---3-------|
|--------------------------------|--------------------------------|

 |       |       |       |        |       |       |       |
|--------------------------------|--------------------------------|
|3---1---3-------3---1-------3---|----1---3-------3---1---3-------|
|--------------------------------|--------------------------------|
|--------------------------------|--------------------------------|

 |       |       |       |        |       |       |       |
|--------------------------------|--------------------------------|
|--------------------------------|--------------------------------|
|3---------------3---1-------3---|----1---3---------------1-------|
|--------------------------------|--------------------------------|

 |       |       |       |        |       |       |       |
|--------------------------------|--------------------------------|
|--------------------------------|--------------------1-----------|
|--------------------------------|----------------------------1---|
|----1---3-------3---1-------1---|--------1-------1-------3-------|

 |       |       |       |        |       |       |       |
|--------------------------------|--------------------------------|
|--------------------------------|--------------------------------|
|3---1---3-------3---1---3---3---|----1---3---1-------------------|
|--------------------------------|----------------------------3---|

 |       |       |       |        |       |       |       |
|--------------------------------|--------------------------------|
|--------------------------------|--------------------------------|
|3---1---3-------3---1---3---3---|----1---3-------3---1---3-------|
|--------------------------------|--------------------------------|

 |       |       |       |        |       |       |       |
|--------------------------------|--------------------------------|
|--------------------------------|--------------------------------|
|3---1---3-------3---1-------3---|----1-----------3---1---3-------|
|--------------------------------|--------------------------------|

 |       |       |       |        |       |       |       |
|--------------------------------|--------------------------------|
|3---1---3-------3---1---3---3---|----1---3-------3---1---3-------|
|--------------------------------|----------------------------1---|
|--------------------------------|--------------------------------|

 |       |       |       |        |       |       |       |
|--------------------------------|--------------------------------|
|--------------------------------|--------------------------------|
|3---1---3-------3---1---3---3---|----1---3-------3---1---3-------|
|--------------------------------|----------------------------1---|

 |       |       |       |        |       |       |       |
|--------------------------------|--------------------------------|
|--------------------------------|--------------------------------|
|--------------------------------|------------------------1---2---|
|3---1---3-------3---1---3---1---|--------1-------1---3-----------|

 |       |       |       |        |       |       |       |
|--------------------------------|----------------5-----------0---|
|--------------------------------|------------------------3-------|
|3---2---3-------------3-----3---|--------3-----------------------|
|--------------------------------|--------------------------------|

 |       |       |       |        |       |       |       |
|--------------------------------|--------------------------------|
|--------------------------------|--------------------------------|
|3---1---3-------3---1---3---3---|----1---3-------3---------------|
|--------------------------------|--------------------0---1-------|

 |       |       |       |        |       |       |       |
|--------------------------------|--------------------------------|
|--------------------------------|--------------------------------|
|3---1---3-------3---1---3---3---|----1---3-------3---1---3-------|
|--------------------------------|--------------------------------|

 |       |       |       |        |       |       |       |
|--------------------------------|--------------------------------|
|3---1---3-------3---1---3---3---|----1---3-------3---------------|
|--------------------------------|--------------------0---1---2---|
|--------------------------------|--------------------------------|

 |       |       |       |        |       |       |       |
|--------------------------------|--------------------------------|
|--------------------------------|--------------------------------|
|3---1---3-------3---1---3---3---|----1---3-------3---------------|
|--------------------------------|--------------------0-----------|

 |       |       |       |        |       |       |       |
|--------------------------------|--------------------------------|
|--------------------------------|--------3-------------------1---|
|--------------------------------|------------------------3-------|
|3---1---3-------3---1---3---1---|--------------------------------|

 |       |       |       |        |       |       |       |
|--------------------------------|--------------------------------|
|--------------------------------|--------------------------------|
|----------------3-------3---3---|--------------------------------|
|--------------------------------|----0---1-------0-------3-------|

 |       |       |       |        |       |       |       |
|--------------------------------|--------------------------------|
|--------------------------------|--------------------------------|
|3---1---3-------1-------1---3---|----1---3-------------------1---|
|--------------------3-----------|----------------0---1---3-------|

 |       |       |       |        |       |       |       |
|--------------------------------|--------------------------------|
|--------------------------------|--------------------------------|
|3---1---3-------1-------1---3---|----1---3---------------1---3---|
|--------------------3-----------|------------0---1---3-----------|

 |       |       |       |        |       |       |       |
|--------------------------------|--------------------------------|
|3---1---3-------1-------1---3---|----1---3-------------------1---|
|--------------------3-----------|------------0-------------------|
|--------------------------------|--------------------------------|

 |       |       |       |        |       |       |       |
|--------------------------------|--------------------------------|
|--------------------------------|--------------------------------|
|3---1---3-------3---1---3---3---|----1---3-------------------1---|
|--------------------------------|------------0-------2---3-------|

 |       |       |       |        |       |       |       |
|--------------------------------|--------------------------------|
|--------------------------------|------------------------1---0---|
|--------------------------------|--------0---1---2---3-----------|
|3---1---3-------3---1---3---1---|----0---------------------------|

 |       |       |       |        |       |       |       |
|--------------------------------|--------------------------------|
|--------------------------------|------------2---3---4-----------|
|3---1---3-------3---1---3---3---|----1---3-------------------1---|
|--------------------------------|--------------------------------|

 |       |       |       |        |       |       |       |
|--------------------------------|--------------------------------|
|--------------------------------|--------------------------------|
|3---1---3-------3---1---3-------|--------3-------3-------3-------|
|--------------------------------|--------------------------------|

 |       |       |       |        |       |       |       |
|--------------------------------|--------------------------------|
|--------------------------------|----------------------------1---|
|--------3-------3-------3-------|----------------3---------------|
|--------------------------------|--------------------------------|

 |       |       |       |        |       |       |       |
|--------------------------------|--------------------------------|
|3---1---3-------3---1---3---1---|3-------------------1-----------|
|--------------------------------|--------------------------------|
|--------------------------------|--------------------------------|

 |       |       |       |        |       |       |       |
|--------------------------------|--------------------------------|
|--------------------------------|----------------------------3---|
|3-------3-------3---1---3---1---|3---1---3-------3---1---3-------|
|--------------------------------|--------------------------------|

 |       |       |       |        |       |       |       |
|0---------------0-------0-------|--------------------------------|
|--------------------3-------1---|3---1-----------1---0-----------|
|--------------------------------|--------------------------------|
|--------------------------------|--------------------------------|

 |       |       |       |        |       |       |       |
|--------------------------------|--------------------------------|
|--------------------------------|--------------------------------|
|3---1---3-------3---1---3---1---|3---1---3---1---3---1---3---1---|
|--------------------------------|--------------------------------|

 |       |       |       |        |       |       |       |
|--------------------------------|--------------------------------|
|--------------------------------|--------------------------------|
|3---1---3-------3---1---3---3---|----1---3-------------------1---|
|--------------------------------|----------------0---1---3-------|

 |       |       |       |        |       |       |       |
|--------------------------------|--------------------------------|
|--------------------------------|--------------------------------|
|3---1---3-------3---1---3---3---|----1---3-------------------3---|
|--------------------------------|----------------0-------3-------|

 |       |       |       |        |       |       |       |
|--------------------------------|--------------------------------|
|----------------3---1---3---3---|----1-----------------------1---|
|--------------------------------|------------0---1---2---3-------|
|--------------------------------|--------------------------------|

 |       |       |       |        |       |       |       |
|--------------------------------|--------------------------------|
|--------------------------------|--------------------------------|
|3-------3-------3---1---3---3---|----1---3-------------------1---|
|--------------------------------|------------0---1---3---3-------|

 |       |       |       |        |       |       |       |
|--------------------------------|--------------------------------|
|----------------------------1---|----3-----------------------1---|
|--------------------------------|--------0---1---2---3-----------|
|3---1---3-----------1---3-------|1-------------------------------|

 |       |       |       |        |       |       |       |
|--------------------------------|----5-------5-----------0-------|
|--------------------------------|--------2-------3---------------|
|3---1---3-------3---1-----------|----------------------------1---|
|--------------------------------|--------------------------------|

 |       |       |       |        |       |       |       |
|--------------------------------|--------------------------------|
|--------------------------------|--------------------------------|
|3---1---3-------3-------3---3---|----1---3---1---3---1---3-------|
|--------------------------------|--------------------------------|

 |       |       |       |        |       |       |       |
|--------------------------------|--------------------------------|
|--------------------------------|--------------------------------|
|3---1---3-------3-------3---3---|----1---3---1---3---1---3-------|
|--------------------------------|--------------------------------|

 |       |       |       |        |       |       |       |
|--------------------------------|--------------------------------|
|3---1---3-------3---1---3---3---|----1---3---1-------------------|
|--------------------------------|--------------------0---1---2---|
|--------------------------------|--------------------------------|

 |       |       |       |        |       |       |       |
|--------------------------------|--------------------------------|
|--------------------------------|------------1-------------------|
|3---1---3-------3---1---3---3---|----1---3-----------------------|
|--------------------------------|----------------0---1-------2---|

 |       |       |       |        |       |       |       |
|--------------------------------|--------------------------------|
|--------------------------------|------------------------1---0---|
|--------------------------------|----0-------1---2---3-----------|
|3---1---3-------3---1---3---1---|--------------------------------|

 |       |       |       |        |       |       |       |
|--------------------------------|--------------------------------|
|--------------------------------|--------------------------------|
|----1---3-------3---1---3---3---|----1---3-------------------1---|
|--------------------------------|------------0---1-------3-------|

 |       |       |       |        |       |       |       |
|--------------------------------|--------------------------------|
|--------------------------------|--------------------------------|
|3---1---3-------3---3-------1---|3---1---3---1---3---1---3---1---|
|--------------------------------|--------------------------------|

 |       |       |       |        |       |       |       |
|--------------------------------|--------------------------------|
|--------------------------------|----------------------------1---|
|3---1---3-------3---3-------1---|3---1---3---1---3---1---3-------|
|--------------------------------|--------------------------------|

 |       |       |       |        |       |       |       |
|--------------------------------|--------------------------------|
|3---1---3-------3---3-----------|3-3-----------------------------|
|--------------------------------|----0---1---2---3-----------1---|
|--------------------------------|--------------------------------|

 |       |       |       |        |       |       |       |
|--------------------------------|--------------------------------|
|--------------------------------|--------------------------------|
|3-------3-------3---3-------1---|--------------------0---1-------|
|--------------------------------|----0---1---2---3---------------|

 |       |       |       |        |       |       |       |
|--------------------------------|--------------------------------|
|--------------------------------|3-3---------------------3-------|
|----------------------------3---|----0---1---2---------------1---|
|3---1---3-------3---3-----------|--------------------------------|

 |       |       |       |        |       |       |       |
|--------------------------------|--------------------------------|
|--------------------------------|--------------------------------|
|3---1---3-------3---3-------1---|3---1---3-------3---------------|
|--------------------------------|--------------------------------|

 |       |       |       |        |       |       |       |
|--------------------------------|--------------------------------|
|--------------------------------|--------------------------------|
|3---1---3-------3---3-------1---|3---1---3-----------------------|
|--------------------------------|--------------------0---1---3---|

 |       |       |       |        |       |       |       |
|--------------------------------|--------------------------------|
|--------------------------------|--------------------------------|
|3---1---3-------3---3-------1---|3---1---3-------------------3---|
|--------------------------------|--------------------0---1-------|

 |       |       |       |        |       |       |       |
|--------------------------------|--------------------------------|
|3---1---3-------3---3-------1---|3---1---3-----------------------|
|--------------------------------|--------------------0---1---2---|
|--------------------------------|--------------------------------|

 |       |       |       |        |       |       |       |
|--------------------------------|--------------------------------|
|--------------------------------|--------------------------------|
|3---1-----------3---3-------1---|3---1---3-----------------------|
|--------------------------------|--------------------0---1---2---|

 |       |       |       |        |       |       |       |
|--------------------------------|--------------------------------|
|--------------------------------|----1---3-----------------------|
|----------------------------3---|--------------------0---1---2---|
|3---1---3-------3---3-----------|--------------------------------|

 |       |       |       |        |       |       |       |
|--------------------------------|--------------------0-----------|
|--------------------------------|----2-------3---4-------0---0---|
|3---1---3-------3---3-------1---|3-------------------------------|
|--------------------------------|--------------------------------|

 |       |       |       |        |       |       |       |
|--------------------------------|--------------------------------|
|--------------------------------|--------------------------------|
|3---1---3-------3---3-------1---|----1---3-------3---3-------1---|
|--------------------------------|--------------------------------|

 |       |       |       |        |       |       |       |
|--------------------------------|--------------------------------|
|--------------------------------|----------------------------1---|
|3---1---3-------3---3-------1---|3---------------3---3-----------|
|--------------------------------|--------------------------------|

 |       |       |       |        |       |       |       |
|--------------------------------|--------------------------------|
|3---1-----------3---3-------1---|3-----------1---3---------------|
|--------------------------------|--------------------0---1---2---|
|--------------------------------|--------------------------------|

 |       |       |       |        |       |       |       |
|--------------------------------|--------------------------------|
|--------------------------------|--------------------------------|
|3---1---3-------3---3-------1---|3---1---3-------------------1---|
|--------------------------------|----------------0---1---3-------|

 |       |       |       |        |       |       |       |
|--------------------------------|--------------------------------|
|--------------------------------|----------------------------1---|
|----------------------------3---|--------0-------1---1---2-------|
|3---1---3-------3---3-----------|1---1---------------------------|

 |       |       |       |        |       |       |       |
|--------------------------------|----5-5-------------------------|
|--------------------------------|--------2---3---4---------------|
|3---1---3-------3---3-----------|3-----------------------1---2---|
|--------------------------------|--------------------------------|

 |       |       |       |        |       |       |       |
|--------------------------------|--------------------------------|
|--------------------------------|--------------------------------|
|3---1---3-------3---3-------1---|3---1---3---1---3---1---3---1---|
|--------------------------------|--------------------------------|

 |       |       |       |        |       |       |       |
|--------------------------------|--------------------------------|
|--------------------------------|----------------------------1---|
|3---1---3-------3---3-------1---|3---1-----------3---------------|
|--------------------------------|--------------------------------|

 |       |       |       |        |       |       |       |
|--------------------------------|--------------------------------|
|3---1-----------3---3-------1---|3---1---3---1---3---------------|
|--------------------------------|----------------------------1---|
|--------------------------------|--------------------------------|

 |       |       |       |        |       |       |       |
|--------------------------------|--------------------------------|
|--------------------------------|--------------------2---3---4---|
|3---1---3-------3---3-----------|3-------3---1---3---------------|
|--------------------------------|--------------------------------|

 |       |       |       |        |       |       |       |
|0-------0-------0---0-----------|--------------------------------|
|----3-----------------------1---|3---1---3---1-------------------|
|--------------------------------|--------------------0---1---2---|
|--------------------------------|--------------------------------|

 |       |       |       |        |       |       |       |
|--------------------------------|------------------------0-------|
|--------------------------------|----------------3---4-----------|
|3-------3-------3---3-------1---|3---1---3-------------------1---|
|--------------------------------|--------------------------------|

 |       |       |       |        |       |       |       |
|--------------------------------|--------------------------------|
|--------------------------------|--------------------------------|
|3---1---3-------3---3-------1---|3---1---3---1---3---3-------1---|
|--------------------------------|--------------------------------|

 |       |       |       |        |       |       |       |
|--------------------------------|--------------------------------|
|--------------------------------|----------------------------1---|
|3---1---3---1---3---3-------1---|3---1---3-----------3-----------|
|--------------------------------|--------------------------------|

 |       |       |       |        |       |       |       |
|--------------------------------|--------------------------------|
|3---1---3---1---3---3-------1---|3---1---3---1---3---------------|
|--------------------------------|--------------------0---1---2---|
|--------------------------------|--------------------------------|

 |       |       |       |        |       |       |       |
|--------------------------------|--------------------------------|
|--------------------------------|--------------------2-------3---|
|3---------------3---3-------1---|3---1---3-------3---------------|
|--------------------------------|--------------------------------|

 |       |       |       |        |       |       |       |
|0-------0-------0---0-----------|--------------------------------|
|----3-------3---------------1---|3---1---3---1---3---------------|
|--------------------------------|--------------------0---1-------|
|--------------------------------|--------------------------------|

 |       |       |       |        |       |       |       |
|--------------------------------|--------------------------------|
|--------------------------------|--------2---3---4---------------|
|----1---3---1---3-----------1---|3---1-------------------0---1---|
|--------------------------------|--------------------------------|

 |       |       |       |        |       |       |       |
|--------------------------------|--------------------------------|
|--------------------------------|--------------------------------|
|3-------3-------3---3-----------|3---1---3---1---3---3-------1---|
|--------------------------------|--------------------------------|

 |       |       |       |        |       |       |       |
|--------------------------------|--------------------------------|
|--------------------------------|------------------------1---2---|
|3---1---3---1-------3-------1---|3-------3-------3---3-----------|
|--------------------------------|--------------------------------|

 |       |       |       |        |       |       |       |
|--------------------------------|--------------------------------|
|3---1---3---1---3---3-------1---|3---1---3-------------------1---|
|--------------------------------|------------0---1---2---3-------|
|--------------------------------|--------------------------------|

 |       |       |       |        |       |       |       |
|--------------------------------|--------------------------------|
|--------------------------------|--------------------------------|
|3---1---3---1---3---3-------1---|3---1---3-------------------1---|
|--------------------------------|------------0---1---2---3-------|

 |       |       |       |        |       |       |       |
|--------------------------------|--------------------------------|
|--------------------------------|3-3-----------------1---0-------|
|----------------------------3---|----0---1---2---3---------------|
|3-------------------------------|--------------------------------|

 |       |       |       |        |       |       |       |
|--------------------------------|----5-5-------------------------|
|--------------------------------|----------------4---------------|
|3---1---3-------3---3-------1---|--------------------------------|
|--------------------------------|--------------------------------|

 |       |       |       |        |       |       |       |
|--------------------------------|--------------------------------|
|--------------------------------|--------------------------------|
|3---1---3-------3---3-------1---|3---1---3-------3---------------|
|--------------------------------|--------------------0---1---3---|

 |       |       |       |        |       |       |       |
|--------------------------------|--------------------------------|
|--------------------------------|----------------------------1---|
|3---1---3-------3---3-------1---|3-------------------1---3-------|
|--------------------------------|----0---1---2---3---------------|

 |       |       |       |        |       |       |       |
|--------------------------------|--------------------------------|
|3---1---3-------3-----------1---|3---1---3-----------------------|
|--------------------3-----------|----------------1---2-----------|
|--------------------------------|--------------------------------|

 |       |       |       |        |       |       |       |
|--------------------------------|--------------------------------|
|--------------------------------|--------------------------------|
|----1---3-------3---3-------1---|3---1-----------------------1---|
|--------------------------------|----------------0---1---3-------|

 |       |       |       |        |       |       |       |
|--------------------------------|--------------------------------|
|--------------------------------|3---1---3-----------------------|
|----------------------------3---|----------------1---2---3-------|
|3---1---3-------3---3-----------|--------------------------------|

 |       |       |       |        |       |       |       |
|--------------------------------|--------------------------------|
|--------------------------------|--------------------------------|
|3---1---3-------3---3-------1---|3---1---3-------------------1---|
|--------------------------------|----------------0---1---3-------|

 |       |       |       |        |       |       |       |
|--------------------------------|--------------------------------|
|--------------------------------|--------------------------------|
|3---1---3-------3---3-------1---|3---1---3-------------------1---|
|--------------------------------|----------------0-------3-------|

 |       |       |       |        |       |       |       |
|--------------------------------|--------------------------------|
|--------------------------------|--------------------------------|
|3---1---3-------3---3-------1---|3---1---3---------------3-------|
|--------------------------------|----------------1---3-----------|

 |       |       |       |        |       |       |       |
|--------------------------------|--------------------------------|
|3---1---3-------3---3-----------|3---1---3-3-----------------1---|
|--------------------------------|------------0---1---2---3-------|
|--------------------------------|--------------------------------|

 |       |       |       |        |       |       |       |
|--------------------------------|--------------------------------|
|--------------------------------|--------------------------------|
|3---1---3-------3---3-------1---|3-------------------0---1-------|
|--------------------------------|----0---1---2---3-----------1---|

 |       |       |       |        |       |       |       |
|--------------------------------|--------------------------------|
|--------------------------------|3-3-----------------1---3-3-----|
|----------------------------3---|----0---1---2---3-----------1---|
|3---1---3-------3---3-----------|--------------------------------|

 |       |       |       |        |       |       |       |
|--------------------------------|----5-5---------5-5---------0---|
|--------------------------------|--------1---2-------3---4-------|
|3---1---3-------3---3-------1---|3-------------------------------|
|--------------------------------|--------------------------------|

 |       |       |       |        |       |       |       |
|--------------------------------|--------------------------------|
|--------------------------------|--------------------------------|
|3---1---3-------3---3-------1---|3-------------------0---1---2---|
|--------------------------------|----0---1---2---3---------------|

 |       |       |       |        |       |       |       |
|--------------------------------|--------------------------------|
|--------------------------------|----------------------------1---|
|3---1---3-------3---3-------1---|3-3-----------------2-----------|
|--------------------------------|----0---1---2---3---------------|

 |       |       |       |        |       |       |       |
|--------------------------------|--------------------------------|
|----1---3-------3---3-----------|3-3-------------------------0---|
|--------------------------------|----0---1---2---3-3-------------|
|--------------------------------|--------------------------------|

 |       |       |       |        |       |       |       |
|--------------------------------|--------------------------------|
|--------------------------------|--------------------------------|
|3---1---3-------3---3-------1---|3-------------------0---1-1-----|
|--------------------------------|----0---1-------3-----------1---|

 |       |       |       |        |       |       |       |
|--------------------------------|--------------------------------|
|--------------------------------|3-3-----------------------------|
|----------------------------3---|----0-----------------1---------|
|3---1---3-------3---3-----------|--------------------------------|

 |       |       |       |        |       |       |       |
|--------------------------------|----------------0---2---3-------|
|--------------------------------|----2---3---4-------------------|
|3---1---3-------3-----------1---|--------------------------------|
|--------------------------------|--------------------------------|

 |       |       |       |
|5-------------------------------|
|--------------------------------|
|--------------------------------|
|--------------------------------|
						
# Artist Title Tabdesignator