Red Hot Chili Peppers

Backwoods Ver 2


							
INTRO
G|--------------------------------|--------------------------------|
D|--------------------------------|--------------------------------|
A|--------------------------------|--------------------------------|
E|--------------------------------|--------------------------------|

  1 + + + 2 + + + 3 + + + 4 + + +   1 + + + 2 + + + 3 + + + 4 + + +
G|--------------------------------|--------------------------------|
D|--------------------------------|--------------------------------|
A|--------------------------------|--------------------------------|
E|--------------------------------|--------------------------------|

  1 + + + 2 + + + 3 + + + 4 + + +   1 + + + 2 + + + 3 + + + 4 + + +
G|--------------------------------|--------------------------------|
D|--------------------------------|--------------------------------|
A|--------------------------------|--------------------------------|
E|--------------------------------|--------------------------------|

  1 + + + 2 + + + 3 + + + 4 + + +   1 + + + 2 + + + 3 + + + 4 + + +
G|--------------------------------|--------------------------------|
D|--------------------------------|--------------------------------|
A|--------------------------------|--------------------------------|
E|--------------------------------|--------------------------------|

  1 + + + 2 + + + 3 + + + 4 + + +   1 + + + 2 + + + 3 + + + 4 + + +
G|--------------------------------|--------------------------------|
D|------------4-------4-------4---|-----4-----------4-------4------|
A|--------------------------------|--------------------------------|
E|2-------X-------X-------X-------|-X-------X---X-------X----------|

  1 + + + 2 + + + 3 + + + 4 + + +   1 + + + 2 + + + 3 + + + 4 + + +
  T       T   P   T   P   T   P     T   P   T   T   P   T   P
G|--------------------------------|--------------------------------|
D|------------4-------4-------4---|-----4-----------4-------4------|
A|--------------------------------|--------------------------------|
E|2-------X-------X-------X-------|-X-------X---X-------X----------|

  1 + + + 2 + + + 3 + + + 4 + + +   1 + + + 2 + + + 3 + + + 4 + + +
  T       T   P   T   P   T   P     T   P   T   T   P   T   P
G|--------------------------------|--------------------------------|
D|------------4-------4-------4---|-----4-----------4-------4------|
A|--------------------------------|--------------------------------|
E|2-------X-------X-------X-------|-X-------X---X-------X----------|

  1 + + + 2 + + + 3 + + + 4 + + +   1 + + + 2 + + + 3 + + + 4 + + +
  T       T   P   T   P   T   P     T   P   T   T   P   T   P
G|--------------------------------|--------------------------------|
D|------------4-------4-------4---|-----4-----------4-------4------|
A|--------------------------------|--------------------------------|
E|2-------X-------X-------X-------|-X-------X---X-------X----------|

  1 + + + 2 + + + 3 + + + 4 + + +   1 + + + 2 + + + 3 + + + 4 + + +
  T       T   P   T   P   T   P     T   P   T   T   P   T   P
VERSE
G|--------------------------------|--------------------------------|
D|------------4-------4-------4---|-----4-----------4-------4------|
A|--------------------------------|--------------------------------|
E|2-------X-------X-------X-------|-X-------X---X-------X----------|

  1 + + + 2 + + + 3 + + + 4 + + +   1 + + + 2 + + + 3 + + + 4 + + +
  T       T   P   T   P   T   P     T   P   T   T   P   T   P
G|--------------------------------|--------------------------------|
D|------------4-------4-------4---|-----4-----------4-------4------|
A|--------------------------------|--------------------------------|
E|2-------X-------X-------X-------|-X-------X---X-------X----------|

  1 + + + 2 + + + 3 + + + 4 + + +   1 + + + 2 + + + 3 + + + 4 + + +
  T       T   P   T   P   T   P     T   P   T   T   P   T   P
G|--------------------------------|--------------------------------|
D|------------4-------4-------4---|-----4-----------4-------4------|
A|--------------------------------|--------------------------------|
E|2-------X-------X-------X-------|-X-------X---X-------X----------|

  1 + + + 2 + + + 3 + + + 4 + + +   1 + + + 2 + + + 3 + + + 4 + + +
  T       T   P   T   P   T   P     T   P   T   T   P   T   P
G|--------------------------------|--------------------------------|
D|------------4-------4-------4---|-----4-----------4-------4------|
A|--------------------------------|--------------------------------|
E|2-------X-------X-------X-------|-X-------X---X-------X----------|

  1 + + + 2 + + + 3 + + + 4 + + +   1 + + + 2 + + + 3 + + + 4 + + +
  T       T   P   T   P   T   P     T   P   T   T   P   T   P
G|--------------------------------|--------------------------------|
D|------------4-------4-------4---|-----4-----------4-------4------|
A|--------------------------------|--------------------------------|
E|2-------X-------X-------X-------|-X-------X---X-------X----------|

  1 + + + 2 + + + 3 + + + 4 + + +   1 + + + 2 + + + 3 + + + 4 + + +
  T       T   P   T   P   T   P     T   P   T   T   P   T   P
G|--------------------------------|--------------------------------|
D|------------4-------4-------4---|-----4-----------4-------4------|
A|--------------------------------|--------------------------------|
E|2-------X-------X-------X-------|-X-------X---X-------X----------|

  1 + + + 2 + + + 3 + + + 4 + + +   1 + + + 2 + + + 3 + + + 4 + + +
  T       T   P   T   P   T   P     T   P   T   T   P   T   P
G|--------------------------------|--------------------------------|
D|------------4-------4-------4---|-----4-----------4-------4------|
A|--------------------------------|--------------------------------|
E|2-------X-------X-------X-------|-X-------X---X-------X----------|

  1 + + + 2 + + + 3 + + + 4 + + +   1 + + + 2 + + + 3 + + + 4 + + +
  T       T   P   T   P   T   P     T   P   T   T   P   T   P
G|--------------------------------|--------------------------------|
D|------------4-------4-------4---|-----4-----------4-------4------|
A|--------------------------------|--------------------------------|
E|2-------X-------X-------X-------|-X-------X---X-------X----------|

  1 + + + 2 + + + 3 + + + 4 + + +   1 + + + 2 + + + 3 + + + 4 + + +
  T       T   P   T   P   T   P     T   P   T   T   P   T   P
CHORUS
G|--------------------------------|--------------------------------|
D|------------4-------4-------4---|-----7-------7-------9-------9--|
A|--------------------------------|--------------------------------|
E|2-------X-------X-------X-------|-5-------X-------7-------X------|

  1 + + + 2 + + + 3 + + + 4 + + +   1 + + + 2 + + + 3 + + + 4 + + +
  T       T   P   T   P   T   P     T   P   T   P   T   P   T   P
G|--------------------------------|--------------------------------|
D|------------4-------4-------4---|-----7-------7-------9-------9--|
A|--------------------------------|--------------------------------|
E|2-------X-------X-------X-------|-5-------X-------7-------X------|

  1 + + + 2 + + + 3 + + + 4 + + +   1 + + + 2 + + + 3 + + + 4 + + +
  T       T   P   T   P   T   P     T   P   T   P   T   P   T   P
G|--------------------------------|--------------------------------|
D|------------4-------4-------4---|-----7-------7-------9-------9--|
A|--------------------------------|--------------------------------|
E|2-------X-------X-------X-------|-5-------X-------7-------X------|

  1 + + + 2 + + + 3 + + + 4 + + +   1 + + + 2 + + + 3 + + + 4 + + +
  T       T   P   T   P   T   P     T   P   T   P   T   P   T   P
G|--------------------------------|--------------------------------|
D|------------4-------4-------4---|-----7-------7-------9-------9--|
A|--------------------------------|--------------------------------|
E|2-------X-------X-------X-------|-5-------X-------7-------X------|

  1 + + + 2 + + + 3 + + + 4 + + +   1 + + + 2 + + + 3 + + + 4 + + +
  T       T   P   T   P   T   P     T   P   T   P   T   P   T   P
VERSE
G|--------------------------------|--------------------------------|
D|------------4-------4-------4---|-----4-----------4-------4------|
A|--------------------------------|--------------------------------|
E|2-------X-------X-------X-------|-X-------X---X-------X----------|

  1 + + + 2 + + + 3 + + + 4 + + +   1 + + + 2 + + + 3 + + + 4 + + +
  T       T   P   T   P   T   P     T   P   T   T   P   T   P
G|--------------------------------|--------------------------------|
D|------------4-------4-------4---|-----4-----------4-------4------|
A|--------------------------------|--------------------------------|
E|2-------X-------X-------X-------|-X-------X---X-------X----------|

  1 + + + 2 + + + 3 + + + 4 + + +   1 + + + 2 + + + 3 + + + 4 + + +
  T       T   P   T   P   T   P     T   P   T   T   P   T   P
G|--------------------------------|--------------------------------|
D|------------4-------4-------4---|-----4-----------4-------4------|
A|--------------------------------|--------------------------------|
E|2-------X-------X-------X-------|-X-------X---X-------X----------|

  1 + + + 2 + + + 3 + + + 4 + + +   1 + + + 2 + + + 3 + + + 4 + + +
  T       T   P   T   P   T   P     T   P   T   T   P   T   P
G|--------------------------------|--------------------------------|
D|------------4-------4-------4---|-----4-----------4-------4------|
A|--------------------------------|--------------------------------|
E|2-------X-------X-------X-------|-X-------X---X-------X----------|

  1 + + + 2 + + + 3 + + + 4 + + +   1 + + + 2 + + + 3 + + + 4 + + +
  T       T   P   T   P   T   P     T   P   T   T   P   T   P
G|--------------------------------|--------------------------------|
D|------------4-------4-------4---|-----4-----------4-------4------|
A|--------------------------------|--------------------------------|
E|2-------X-------X-------X-------|-X-------X---X-------X----------|

  1 + + + 2 + + + 3 + + + 4 + + +   1 + + + 2 + + + 3 + + + 4 + + +
  T       T   P   T   P   T   P     T   P   T   T   P   T   P
G|--------------------------------|--------------------------------|
D|------------4-------4-------4---|-----4-----------4-------4------|
A|--------------------------------|--------------------------------|
E|2-------X-------X-------X-------|-X-------X---X-------X----------|

  1 + + + 2 + + + 3 + + + 4 + + +   1 + + + 2 + + + 3 + + + 4 + + +
  T       T   P   T   P   T   P     T   P   T   T   P   T   P
G|--------------------------------|--------------------------------|
D|------------4-------4-------4---|-----4-----------4-------4------|
A|--------------------------------|--------------------------------|
E|2-------X-------X-------X-------|-X-------X---X-------X----------|

  1 + + + 2 + + + 3 + + + 4 + + +   1 + + + 2 + + + 3 + + + 4 + + +
  T       T   P   T   P   T   P     T   P   T   T   P   T   P
G|--------------------------------|--------------------------------|
D|------------4-------4-------4---|-----4-----------4-------4------|
A|--------------------------------|--------------------------------|
E|2-------X-------X-------X-------|-X-------X---X-------X----------|

  1 + + + 2 + + + 3 + + + 4 + + +   1 + + + 2 + + + 3 + + + 4 + + +
  T       T   P   T   P   T   P     T   P   T   T   P   T   P
CHORUS
G|--------------------------------|--------------------------------|
D|------------4-------4-------4---|-----7-------7-------9-------9--|
A|--------------------------------|--------------------------------|
E|2-------X-------X-------X-------|-5-------X-------7-------X------|

  1 + + + 2 + + + 3 + + + 4 + + +   1 + + + 2 + + + 3 + + + 4 + + +
  T       T   P   T   P   T   P     T   P   T   P   T   P   T   P
G|--------------------------------|--------------------------------|
D|------------4-------4-------4---|-----7-------7-------9-------9--|
A|--------------------------------|--------------------------------|
E|2-------X-------X-------X-------|-5-------X-------7-------X------|

  1 + + + 2 + + + 3 + + + 4 + + +   1 + + + 2 + + + 3 + + + 4 + + +
  T       T   P   T   P   T   P     T   P   T   P   T   P   T   P
G|--------------------------------|--------------------------------|
D|------------4-------4-------4---|-----7-------7-------9-------9--|
A|--------------------------------|--------------------------------|
E|2-------X-------X-------X-------|-5-------X-------7-------X------|

  1 + + + 2 + + + 3 + + + 4 + + +   1 + + + 2 + + + 3 + + + 4 + + +
  T       T   P   T   P   T   P     T   P   T   P   T   P   T   P
G|--------------------------------|--------------------------------|
D|------------4-------4-------4---|-----7-------7-------9-------9--|
A|--------------------------------|--------------------------------|
E|2-------X-------X-------X-------|-5-------X-------7-------X------|

  1 + + + 2 + + + 3 + + + 4 + + +   1 + + + 2 + + + 3 + + + 4 + + +
  T       T   P   T   P   T   P     T   P   T   P   T   P   T   P
INTERLUDE
G|--------------------------------|--------------------------------|
D|--------------------------------|--------------------------------|
A|--------------------------------|--------------------------------|
E|5-H-7---5-H-7---5-H-7---5-H-7---|-5-H-7---5-H-7---5-H-7---5-H-7--|

  1 + + + 2 + + + 3 + + + 4 + + +   1 + + + 2 + + + 3 + + + 4 + + +
  T       T       T       T         T       T       T       T
G|--------------------------------|--------------------------------|
D|--------------------------------|--------------------------------|
A|--------------------------------|--------------------------------|
E|5-H-7---5-H-7---5-H-7---5-H-7---|-5-H-7---5-H-7---5-H-7---5-H-7--|

  1 + + + 2 + + + 3 + + + 4 + + +   1 + + + 2 + + + 3 + + + 4 + + +
  T       T       T       T         T       T       T       T
G|--------------------------------|--------------------------------|
D|--------------------------------|--------------------------------|
A|--------------------------------|--------------------------------|
E|5-H-7---5-H-7---5-H-7---5-H-7---|-5-H-7---5-H-7---5-H-7---5-H-7--|

  1 + + + 2 + + + 3 + + + 4 + + +   1 + + + 2 + + + 3 + + + 4 + + +
  T       T       T       T         T       T       T       T
G|--------------------------------|--------------------------------|
D|--------------------------------|--------------------------------|
A|--------------------------------|--------------------------------|
E|5-H-7---5-H-7---5-H-7---5-H-7---|-5-H-7---5-H-7---5-H-7---5-H-7--|

  1 + + + 2 + + + 3 + + + 4 + + +   1 + + + 2 + + + 3 + + + 4 + + +
  T       T       T       T         T       T       T       T
CHORUS
G|--------------------------------|--------------------------------|
D|------------4-------4-------4---|-----7-------7-------9-------9--|
A|--------------------------------|--------------------------------|
E|2-------X-------X-------X-------|-5-------X-------7-------X------|

  1 + + + 2 + + + 3 + + + 4 + + +   1 + + + 2 + + + 3 + + + 4 + + +
  T       T   P   T   P   T   P     T   P   T   P   T   P   T   P
G|--------------------------------|--------------------------------|
D|------------4-------4-------4---|-----7-------7-------9-------9--|
A|--------------------------------|--------------------------------|
E|2-------X-------X-------X-------|-5-------X-------7-------X------|

  1 + + + 2 + + + 3 + + + 4 + + +   1 + + + 2 + + + 3 + + + 4 + + +
  T       T   P   T   P   T   P     T   P   T   P   T   P   T   P
G|--------------------------------|--------------------------------|
D|------------4-------4-------4---|-----7-------7-------9-------9--|
A|--------------------------------|--------------------------------|
E|2-------X-------X-------X-------|-5-------X-------7-------X------|

  1 + + + 2 + + + 3 + + + 4 + + +   1 + + + 2 + + + 3 + + + 4 + + +
  T       T   P   T   P   T   P     T   P   T   P   T   P   T   P
G|--------------------------------|--------------------------------|
D|------------4-------4-------4---|-----7-------7-------9-------9--|
A|--------------------------------|--------------------------------|
E|2-------X-------X-------X-------|-5-------X-------7-------X------|

  1 + + + 2 + + + 3 + + + 4 + + +   1 + + + 2 + + + 3 + + + 4 + + +
  T       T   P   T   P   T   P     T   P   T   P   T   P   T   P
GUITAR SOLO
G|--------------------------------|--------------------------------|
D|--------------------------------|--------------------------------|
A|--------------------------------|--------------------------------|
E|2-------------------------------|--------------------------------|

  1 + + + 2 + + + 3 + + + 4 + + +   1 + + + 2 + + + 3 + + + 4 + + +
G|--------------------------------|--------------------------------|
D|------------9-------9-------9---|-----9-----------9-------9------|
A|--------------------------------|--------------------------------|
E|7-------X-------X-------X-------|-X-------X---X-------X----------|

  1 + + + 2 + + + 3 + + + 4 + + +   1 + + + 2 + + + 3 + + + 4 + + +
  T       T   P   T   P   T   P     T   P   T   T   P   T   P
G|--------------------------------|--------------------------------|
D|------------9-------9-------9---|-----9-----------9-------9------|
A|--------------------------------|--------------------------------|
E|7-------X-------X-------X-------|-X-------X---X-------X----------|

  1 + + + 2 + + + 3 + + + 4 + + +   1 + + + 2 + + + 3 + + + 4 + + +
  T       T   P   T   P   T   P     T   P   T   T   P   T   P
G|--------------------------------|--------------------------------|
D|------------9-------9-------9---|-----9-----------9-------9------|
A|--------------------------------|--------------------------------|
E|7-------X-------X-------X-------|-X-------X---X-------X----------|

  1 + + + 2 + + + 3 + + + 4 + + +   1 + + + 2 + + + 3 + + + 4 + + +
  T       T   P   T   P   T   P     T   P   T   T   P   T   P
G|--------------------------------|--------------------------------|
D|------------9-------9-------9---|-----9-----------9-------9------|
A|--------------------------------|--------------------------------|
E|7-------X-------X-------X-------|-X-------X---X-------X----------|

  1 + + + 2 + + + 3 + + + 4 + + +   1 + + + 2 + + + 3 + + + 4 + + +
  T       T   P   T   P   T   P     T   P   T   T   P   T   P
G|--------------------------------|--------------------------------|
D|------------7-------7-------7---|-----7-----------7-------7------|
A|--------------------------------|--------------------------------|
E|5-------X-------X-------X-------|-X-------X---X-------X----------|

  1 + + + 2 + + + 3 + + + 4 + + +   1 + + + 2 + + + 3 + + + 4 + + +
  T       T   P   T   P   T   P     T   P   T   T   P   T   P
G|--------------------------------|--------------------------------|
D|------------7-------7-------7---|-----7-----------7-------7------|
A|--------------------------------|--------------------------------|
E|5-------X-------X-------X-------|-X-------X---X-------X----------|

  1 + + + 2 + + + 3 + + + 4 + + +   1 + + + 2 + + + 3 + + + 4 + + +
  T       T   P   T   P   T   P     T   P   T   T   P   T   P
G|--------------------------------|--------------------------------|
D|------------7-------7-------7---|-----7-----------7-------7------|
A|--------------------------------|--------------------------------|
E|5-------X-------X-------X-------|-X-------X---X-------X----------|

  1 + + + 2 + + + 3 + + + 4 + + +   1 + + + 2 + + + 3 + + + 4 + + +
  T       T   P   T   P   T   P     T   P   T   T   P   T   P
G|--------------------------------|--------------------------------|
D|------------7-------7-------7---|-----7-----------7-------7------|
A|--------------------------------|--------------------------------|
E|5-------X-------X-------X-------|-X-------X---X-------X----------|

  1 + + + 2 + + + 3 + + + 4 + + +   1 + + + 2 + + + 3 + + + 4 + + +
  T       T   P   T   P   T   P     T   P   T   T   P   T   P
G|--------------------------------|--------------------------------|
D|------------9-------9-------9---|-----9-----------9-------9------|
A|--------------------------------|--------------------------------|
E|7-------X-------X-------X-------|-X-------X---X-------X----------|

  1 + + + 2 + + + 3 + + + 4 + + +   1 + + + 2 + + + 3 + + + 4 + + +
  T       T   P   T   P   T   P     T   P   T   T   P   T   P
G|--------------------------------|--------------------------------|
D|------------9-------9-------9---|-----9-----------9-------9------|
A|--------------------------------|--------------------------------|
E|7-------X-------X-------X-------|-X-------X---X-------X----------|

  1 + + + 2 + + + 3 + + + 4 + + +   1 + + + 2 + + + 3 + + + 4 + + +
  T       T   P   T   P   T   P     T   P   T   T   P   T   P
INTERLUDE
G|--------------------------------|--------------------------------|
D|--------------------------------|--------------------------------|
A|--------------------------------|--------------------------------|
E|2-------X---2-------2-------2---|-----2-------X---2-------2------|

  1 + + + 2 + + + 3 + + + 4 + + +   1 + + + 2 + + + 3 + + + 4 + + +
  T       T   T       T       T         T       T   T       T
G|--------------------------------|--------------------------------|
D|--------------------------------|--------------------------------|
A|--------------------------------|--------------------------------|
E|2-------X---2-------2-------2---|-----2-------X---2-------2------|

  1 + + + 2 + + + 3 + + + 4 + + +   1 + + + 2 + + + 3 + + + 4 + + +
  T       T   T       T       T         T       T   T       T
G|--------------------------------|--------------------------------|
D|--------------------------------|--------------------------------|
A|--------------------------------|--------------------------------|
E|2-------X---2-------2-------2---|-----2-------X---2-------2------|

  1 + + + 2 + + + 3 + + + 4 + + +   1 + + + 2 + + + 3 + + + 4 + + +
  T       T   T       T       T         T       T   T       T
G|--------------------------------|--------------------------------|
D|--------------------------------|--------------------------------|
A|--------------------------------|--------------------------------|
E|2-------X---2-------2-------2---|-----2-------X---2-------2------|

  1 + + + 2 + + + 3 + + + 4 + + +   1 + + + 2 + + + 3 + + + 4 + + +
  T       T   T       T       T         T       T   T       T
VERSE
G|--------------------------------|--------------------------------|
D|------------4-------4-------4---|-----4-----------4-------4------|
A|--------------------------------|--------------------------------|
E|2-------X-------X-------X-------|-X-------X---X-------X----------|

  1 + + + 2 + + + 3 + + + 4 + + +   1 + + + 2 + + + 3 + + + 4 + + +
  T       T   P   T   P   T   P     T   P   T   T   P   T   P
G|--------------------------------|--------------------------------|
D|------------4-------4-------4---|-----4-----------4-------4------|
A|--------------------------------|--------------------------------|
E|2-------X-------X-------X-------|-X-------X---X-------X----------|

  1 + + + 2 + + + 3 + + + 4 + + +   1 + + + 2 + + + 3 + + + 4 + + +
  T       T   P   T   P   T   P     T   P   T   T   P   T   P
G|--------------------------------|--------------------------------|
D|------------4-------4-------4---|-----4-----------4-------4------|
A|--------------------------------|--------------------------------|
E|2-------X-------X-------X-------|-X-------X---X-------X----------|

  1 + + + 2 + + + 3 + + + 4 + + +   1 + + + 2 + + + 3 + + + 4 + + +
  T       T   P   T   P   T   P     T   P   T   T   P   T   P
G|--------------------4-------4---|-----4--------------------------|
D|------------4-------------------|-----------------4-------4------|
A|--------------------------------|--------------------------------|
E|2-------X-------X-------X-------|-X-------X---X-------X----------|

  1 + + + 2 + + + 3 + + + 4 + + +   1 + + + 2 + + + 3 + + + 4 + + +
  T       T   P   T   P   T   P     T   P   T   T   P   T   P
G|--------------------------------|--------------------------------|
D|------------4-------4-------4---|-----4-----------4-------4------|
A|--------------------------------|--------------------------------|
E|2-------X-------X-------X-------|-X-------X---X-------X----------|

  1 + + + 2 + + + 3 + + + 4 + + +   1 + + + 2 + + + 3 + + + 4 + + +
  T       T   P   T   P   T   P     T   P   T   T   P   T   P
G|--------------------------------|--------------------------------|
D|------------4-------4-------4---|-----4-----------4-------4------|
A|--------------------------------|--------------------------------|
E|2-------X-------X-------X-------|-X-------X---X-------X----------|

  1 + + + 2 + + + 3 + + + 4 + + +   1 + + + 2 + + + 3 + + + 4 + + +
  T       T   P   T   P   T   P     T   P   T   T   P   T   P
G|--------------------------------|--------------------------------|
D|------------4-------4-------4---|-----4-----------4-------4------|
A|--------------------------------|--------------------------------|
E|2-------X-------X-------X-------|-X-------X---X-------X----------|

  1 + + + 2 + + + 3 + + + 4 + + +   1 + + + 2 + + + 3 + + + 4 + + +
  T       T   P   T   P   T   P     T   P   T   T   P   T   P
G|--------------------------------|--------------------------------|
D|------------4-------4-------4---|-----4-----------4-------4------|
A|--------------------------------|--------------------------------|
E|2-------X-------X-------X-------|-X-------X---X-------X----------|

  1 + + + 2 + + + 3 + + + 4 + + +   1 + + + 2 + + + 3 + + + 4 + + +
  T       T   P   T   P   T   P     T   P   T   T   P   T   P
G|--------------------------------|--------------------------------|
D|------------4-------4-------4---|-----4-----------4-------4------|
A|--------------------------------|--------------------------------|
E|2-------X-------X-------X-------|-X-------X---X-------X----------|

  1 + + + 2 + + + 3 + + + 4 + + +   1 + + + 2 + + + 3 + + + 4 + + +
  T       T   P   T   P   T   P     T   P   T   T   P   T   P
G|--------------------------------|--------------------------------|
D|------------4-------4-------4---|-----4-----------4-------4------|
A|--------------------------------|--------------------------------|
E|2-------X-------X-------X-------|-X-------X---X-------X----------|

  1 + + + 2 + + + 3 + + + 4 + + +   1 + + + 2 + + + 3 + + + 4 + + +
  T       T   P   T   P   T   P     T   P   T   T   P   T   P
G|--------------------------------|--------------------------------|
D|------------4-------4-------4---|-----4-----------4-------4------|
A|--------------------------------|--------------------------------|
E|2-------X-------X-------X-------|-X-------X---X-------X----------|

  1 + + + 2 + + + 3 + + + 4 + + +   1 + + + 2 + + + 3 + + + 4 + + +
  T       T   P   T   P   T   P     T   P   T   T   P   T   P
G|--------------------------------|--------------------------------|
D|------------4-------4-------4---|-----4-----------4-------4------|
A|--------------------------------|--------------------------------|
E|2-------X-------X-------X-------|-X-------X---X-------X----------|

  1 + + + 2 + + + 3 + + + 4 + + +   1 + + + 2 + + + 3 + + + 4 + + +
  T       T   P   T   P   T   P     T   P   T   T   P   T   P
G|--------------------------------|--------------------------------|
D|------------4-------4-------4---|-----4-----------4-------4------|
A|--------------------------------|--------------------------------|
E|2-------X-------X-------X-------|-X-------X---X-------X----------|

  1 + + + 2 + + + 3 + + + 4 + + +   1 + + + 2 + + + 3 + + + 4 + + +
  T       T   P   T   P   T   P     T   P   T   T   P   T   P
G|--------------------------------|--------------------------------|
D|------------4-------4-------4---|-----4-----------4-------4------|
A|--------------------------------|--------------------------------|
E|2-------X-------X-------X-------|-X-------X---X-------X----------|

  1 + + + 2 + + + 3 + + + 4 + + +   1 + + + 2 + + + 3 + + + 4 + + +
  T       T   P   T   P   T   P     T   P   T   T   P   T   P
G|--------------------------------|--------------------------------|
D|------------4-------4-------4---|-----4-----------4-------4------|
A|--------------------------------|--------------------------------|
E|2-------X-------X-------X-------|-X-------X---X-------X----------|

  1 + + + 2 + + + 3 + + + 4 + + +   1 + + + 2 + + + 3 + + + 4 + + +
  T       T   P   T   P   T   P     T   P   T   T   P   T   P
G|--------------------------------|--------------------------------|
D|------------4-------4-------4---|-----4-----------4-------4------|
A|--------------------------------|--------------------------------|
E|2-------X-------X-------X-------|-X-------X---X-------X----------|

  1 + + + 2 + + + 3 + + + 4 + + +   1 + + + 2 + + + 3 + + + 4 + + +
  T       T   P   T   P   T   P     T   P   T   T   P   T   P
G|--------------------------------|--------------------------------|
D|------------4-------4-------4---|-----4-----------4-------4------|
A|--------------------------------|--------------------------------|
E|2-------X-------X-------X-------|-X-------X---X-------X----------|

  1 + + + 2 + + + 3 + + + 4 + + +   1 + + + 2 + + + 3 + + + 4 + + +
  T       T   P   T   P   T   P     T   P   T   T   P   T   P
G|--------------------------------|--------------------------------|
D|------------4-------4-------4---|-----4-----------4-------4------|
A|--------------------------------|--------------------------------|
E|2-------X-------X-------X-------|-X-------X---X-------X----------|

  1 + + + 2 + + + 3 + + + 4 + + +   1 + + + 2 + + + 3 + + + 4 + + +
  T       T   P   T   P   T   P     T   P   T   T   P   T   P
G|--------------------------------|--------------------------------|
D|------------4-------4-------4---|-----4-----------4-------4------|
A|--------------------------------|--------------------------------|
E|2-------X-------X-------X-------|-X-------X---X-------X----------|

  1 + + + 2 + + + 3 + + + 4 + + +   1 + + + 2 + + + 3 + + + 4 + + +
  T       T   P   T   P   T   P     T   P   T   T   P   T   P
G|--------------------------------|--------------------------------|
D|------------4-------4-------4---|-----4-----------4-------4------|
A|--------------------------------|--------------------------------|
E|2-------X-------X-------X-------|-X-------X---X-------X----------|

  1 + + + 2 + + + 3 + + + 4 + + +   1 + + + 2 + + + 3 + + + 4 + + +
  T       T   P   T   P   T   P     T   P   T   T   P   T   P
G|--------------------------------|--------------------------------|
D|------------4-------4-------4---|-----4-----------4-------4------|
A|--------------------------------|--------------------------------|
E|2-------X-------X-------X-------|-X-------X---X-------X----------|

  1 + + + 2 + + + 3 + + + 4 + + +   1 + + + 2 + + + 3 + + + 4 + + +
  T       T   P   T   P   T   P     T   P   T   T   P   T   P
CHORUS
G|--------------------------------|--------------------------------|
D|------------4-------4-------4---|-----7-------7-------9-------9--|
A|--------------------------------|--------------------------------|
E|2-------X-------X-------X-------|-5-------X-------7-------X------|

  1 + + + 2 + + + 3 + + + 4 + + +   1 + + + 2 + + + 3 + + + 4 + + +
  T       T   P   T   P   T   P     T   P   T   P   T   P   T   P
G|--------------------------------|--------------------------------|
D|------------4-------4-------4---|-----7-------7-------9-------9--|
A|--------------------------------|--------------------------------|
E|2-------X-------X-------X-------|-5-------X-------7-------X------|

  1 + + + 2 + + + 3 + + + 4 + + +   1 + + + 2 + + + 3 + + + 4 + + +
  T       T   P   T   P   T   P     T   P   T   P   T   P   T   P
G|--------------------------------|--------------------------------|
D|------------4-------4-------4---|-----7-------7-------9-------9--|
A|--------------------------------|--------------------------------|
E|2-------X-------X-------X-------|-5-------X-------7-------X------|

  1 + + + 2 + + + 3 + + + 4 + + +   1 + + + 2 + + + 3 + + + 4 + + +
  T       T   P   T   P   T   P     T   P   T   P   T   P   T   P
G|--------------------------------|--------------------------------|
D|------------4-------4-------4---|-----7-------7-------9-------9--|
A|--------------------------------|--------------------------------|
E|2-------X-------X-------X-------|-5-------X-------7-------X------|

  1 + + + 2 + + + 3 + + + 4 + + +   1 + + + 2 + + + 3 + + + 4 + + +
  T       T   P   T   P   T   P     T   P   T   P   T   P   T   P
G|--------------------------------|--------------------------------|
D|------------4-------4-------4---|-----7-------7-------9-------9--|
A|--------------------------------|--------------------------------|
E|2-------X-------X-------X-------|-5-------X-------7-------X------|

  1 + + + 2 + + + 3 + + + 4 + + +   1 + + + 2 + + + 3 + + + 4 + + +
  T       T   P   T   P   T   P     T   P   T   P   T   P   T   P
G|--------------------------------|--------------------------------|
D|------------4-------4-------4---|-----7-------7-------9-------9--|
A|--------------------------------|--------------------------------|
E|2-------X-------X-------X-------|-5-------X-------7-------X------|

  1 + + + 2 + + + 3 + + + 4 + + +   1 + + + 2 + + + 3 + + + 4 + + +
  T       T   P   T   P   T   P     T   P   T   P   T   P   T   P
G|--------------------------------|--------------------------------|
D|------------4-------4-------4---|-----7-------7-------9-------9--|
A|--------------------------------|--------------------------------|
E|2-------X-------X-------X-------|-5-------X-------7-------X------|

  1 + + + 2 + + + 3 + + + 4 + + +   1 + + + 2 + + + 3 + + + 4 + + +
  T       T   P   T   P   T   P     T   P   T   P   T   P   T   P
G|--------------------------------|--------------------------------|
D|------------4-------4-------4---|-----7-------7-------9-------9--|
A|--------------------------------|--------------------------------|
E|2-------X-------X-------X-------|-5-------X-------7-------X------|

  1 + + + 2 + + + 3 + + + 4 + + +   1 + + + 2 + + + 3 + + + 4 + + +
  T       T   P   T   P   T   P     T   P   T   P   T   P   T   P
G|--------------------------------||
D|--------------------------------||
A|--------------------------------||
E|2---2---2---2---2-------2-------||

  1 + + + 2 + + + 3 + + + 4 + + +
  T   T   T   T   T       T
						
# Artist Title Tabdesignator