Rata Blanca

El Sueno De La Gitana


							
#---------------------------------- NOTE---------------------------------#

#------------------------------------------------------------------------------#

Gtr I (E A D G) - 'Bass - Guillermo Sánchez'
Gtr II (E A D G B E) - 'Keyboard'
 Intro
  G                                    F
 4/4

|----------|------------|------------|------|
|----------|------------|------------|------|
|----------|------------|------------|------|
|-3--------|-(3)--------|-(3)--------|-1----|

  Eb                                   D
|----------|------------|------------|------|
|----------|------------|------------|------|
|-6--------|-(6)--------|-(6)--------|-5----|
|----------|------------|------------|------|

  C                                    Eb
|----------|------------|------------|------|
|----------|------------|------------|------|
|-3--------|-(3)--------|-(3)--------|-6----|
|----------|------------|------------|------|

  D                                           E    F
|----------|------------|------------|-----------------||
|----------|------------|------------|-----------------||
|-5--------|-(5)--------|-(5)--------|-(5)-------------||
|----------|------------|------------|--------12\--1---||

  G                                               F
  Q  E Q  E E E   Q  E Q  E E E   Q  E Q  E E E   Q  E Q  E E E
|---------------|---------------|---------------|----------------|
|---------------|---------------|---------------|----------------|
|---------------|---------------|---------------|----------------|
|-3--3-3--3-3-3-|-3--3-3--3-3-3-|-3--3-3--3-3-3-|-1--1-1--1-1-1--|

  Eb                                              D
  Q  E Q  E E E   Q  E Q  E E E   Q  E Q  E E E   Q  E Q  E E E
|---------------|---------------|---------------|----------------|
|---------------|---------------|---------------|----------------|
|-6--6-6--6-6-6-|-6--6-6--6-6-6-|-6--6-6--6-6-6-|-5--5-5--5-5-5--|
|---------------|---------------|---------------|----------------|

  C                                               Eb
  Q  E Q  E E E   Q  E Q  E E E   Q  E Q  E E E   Q  E Q  E E E
|---------------|---------------|---------------|----------------|
|---------------|---------------|---------------|----------------|
|-3--3-3--3-3-3-|-3--3-3--3-3-3-|-3--3-3--3-3-3-|-6--6-6--6-6-6--|
|---------------|---------------|---------------|----------------|

                H=H             Q.=143
  D                               D       C         Bb      A
  Q  E Q  E E E   Q  E Q  E E E   E E E E E E E E   E E E E E E E E
|---------------|---------------|-----------------|------------------||
|---------------|---------------|-----------------|------------------||
|-5--5-5--5-5-5-|-5--5-5--5-5-5-|-5-5-5-5-3-3-3-3-|------------------||
|---------------|---------------|-----------------|-6-6-6-6-5-5-5-5--||

   Verse
    G                               C                       A Bb
    Q  E Q  E E E   Q  E Q  E E E   Q  E Q  E E E   Q  E Q  E Q
||----------------|---------------|---------------|--------------|
||o---------------|---------------|---------------|--------------|
||o---------------|---------------|-3--3-3--3-3-3-|--------------|
||--3--3-3--3-3-3-|-3--3-3--3-3-3-|---------------|-3--3-3--5-6--|

  Eb              Bb              F
  Q  E Q  E E E   Q  E Q  E E E   Q  E Q  E E E   Q  E Q  E E E
|---------------|---------------|---------------|----------------|
|---------------|---------------|---------------|----------------|
|-6--6-6--6-6-6-|---------------|-8--8-8--8-8-8-|-8--8-8--8-8-8--|
|---------------|-6--6-6--6-6-6-|---------------|----------------|

  D                               D
  Q  E Q  E E E   Q  E Q  E E E   Q  E Q  E E E   Q  E Q  E E E
|---------------|---------------|---------------|----------------|
|---------------|---------------|---------------|----------------|
|-5--5-5--5-5-5-|-5--5-5--5-5-5-|-5--5-5--5-5-5-|-5--5-5--5-5-5--|
|---------------|---------------|---------------|----------------|

  G               Eb              D
  Q  E Q  E E E   Q  E Q  E E E   Q  E Q  E E E   Q  E Q  E E E
|---------------|---------------|---------------|-----------------||
|---------------|---------------|---------------|----------------o||
|---------------|-6--6-6--6-6-6-|-5--5-5--5-5-5-|-5--5-5--5-5-5--o||
|-3--3-3--3-3-3-|---------------|---------------|-----------------||

   Chorus
    F                           G A    Bb                          C C#
     Q  E Q  E E E     Q   E Q  E Q     Q  E Q  E E E     Q   E Q  E Q
||-----------------|-----------------|----------------|-----------------|
||o----------------|-----------------|----------------|-----------------|
||o----------------|-----------------|----------------|------------3-4--|
||---1--1-1--1-1-1-|---1---1-1--3-5--|--6--6-6--6-6-6-|---6---6-6-------|

||---8-------------|--(8)------------|----------------|-----------------|
||o-10-------------|-(10)------------|-15-------------|-(15)------------|
||--10-------------|-(10)------------|-15-------------|-(15)------------|
||-----------------|-----------------|-15-------------|-(15)------------|
||o--8-------------|--(8)------------|-13-------------|-(13)------------|
||-----------------|-----------------|----------------|-----------------|

  D                                   G                         A Bb
   Q  E Q  E E E     Q   E Q  E E E   Q  E Q  E E E    Q   E Q  E Q
|----------------|------------------|---------------|-----------------|
|----------------|------------------|---------------|-----------------|
|--5--5-5--5-5-5-|---5---5-5--5-5-5-|---------------|-----------------|
|----------------|------------------|-3--3-3--3-3-3-|--3---3-3--5-6---|

|-10-------------|-(10)-------------|-6-------------|-(6)-------------|
|-10-------------|-(10)-------------|-8-------------|-(8)-------------|
|-11-------------|-(11)-------------|-7-------------|-(7)-------------|
|----------------|------------------|-5-------------|-(5)-------------|
|----------------|------------------|---------------|-----------------|
|-10-------------|-(10)-------------|---------------|-----------------|

  Eb                                G                         A Bb
  Q  E Q  E E E    Q   E Q  E E E   Q  E Q  E E E    Q   E Q  E Q
|---------------|-----------------|---------------|-----------------|
|---------------|-----------------|---------------|-----------------|
|-6--6-6--6-6-6-|--6---6-6--6-6-6-|---------------|-----------------|
|---------------|-----------------|-3--3-3--3-3-3-|--3---3-3--5-6---|

|---------------|-----------------|-6-------------|-(6)-------------|
|-8-------------|-(8)-------------|-8-------------|-(8)-------------|
|-8-------------|-(8)-------------|-7-------------|-(7)-------------|
|-8-------------|-(8)-------------|-5-------------|-(5)-------------|
|-6-------------|-(6)-------------|---------------|-----------------|
|---------------|-----------------|---------------|-----------------|

  Eb              A               D                           EbD
  Q  E Q  E E E   Q  E Q  E E E    Q  E Q  E E E     Q   E Q  E Q
|---------------|---------------|----------------|-------------------||
|---------------|---------------|----------------|------------------o||
|-6--6-6--6-6-6-|---------------|--5--5-5--5-5-5-|---5---5-5--6-5---o||
|---------------|-5--5-5--5-5-5-|----------------|-------------------||

| W               W                W                 W
|-6-------------|-5-------------|--5-------------|--10---------------||
|-8-------------|-5-------------|--7-------------|--10--------------o||
|-8-------------|-6-------------|--7-------------|--11---------------||
|---------------|---------------|----------------|-------------------||
|-6-------------|---------------|----------------|------------------o||
|---------------|-5-------------|-10-------------|-(10)--------------||

                                                                   To Coda
  D                                   D        C         Bb       A
   Q  E Q  E E E     Q   E Q  E E E    E E E E E E E E    E E E E E E E E
|----------------|------------------|------------------|-------------------||
|----------------|------------------|------------------|-------------------||
|--5--5-5--5-5-5-|---5---5-5--5-5-5-|--5-5-5-5-3-3-3-3-|-------------------||
|----------------|------------------|------------------|--6-6-6-6-5-5-5-5--||

|  W                +W                 H       H          H       H
|-10-------------|-(10)-------------|--5-------8-------|----------5--------||
|-10-------------|-(10)-------------|--7-------8-------|-11-------5--------||
|-11-------------|-(11)-------------|--7-------5-------|-10-------5--------||
|----------------|------------------|------------------|--8----------------||
|----------------|------------------|----------3-------|-------------------||
|-10-------------|-(10)-------------|-10---------------|--6-------5--------||

   Interlude
    G                                               F
    Q  E Q  E E E   Q  E Q  E E E   Q  E Q  E E E   Q  E Q  E E E
||----------------|---------------|---------------|---------------|
||o---------------|---------------|---------------|---------------|
||o---------------|---------------|---------------|---------------|
||--3--3-3--3-3-3-|-3--3-3--3-3-3-|-3--3-3--3-3-3-|-1--1-1--1-1-1-|

  Eb                                              D
  Q  E Q  E E E   Q  E Q  E E E   Q  E Q  E E E   Q  E Q  E E E
|---------------|---------------|---------------|----------------|
|---------------|---------------|---------------|----------------|
|-6--6-6--6-6-6-|-6--6-6--6-6-6-|-6--6-6--6-6-6-|-5--5-5--5-5-5--|
|---------------|---------------|---------------|----------------|

  C                                               Eb
  Q  E Q  E E E   Q  E Q  E E E   Q  E Q  E E E   Q  E Q  E E E
|---------------|---------------|---------------|----------------|
|---------------|---------------|---------------|----------------|
|-3--3-3--3-3-3-|-3--3-3--3-3-3-|-3--3-3--3-3-3-|-6--6-6--6-6-6--|
|---------------|---------------|---------------|----------------|

  D                               D
  Q  E Q  E E E   Q  E Q  E E E   Q  E Q  E E E   Q  E Q  E E E
|---------------|---------------|---------------|-----------------||
|---------------|---------------|---------------|----------------o||
|-5--5-5--5-5-5-|-5--5-5--5-5-5-|-5--5-5--5-5-5-|-5--5-5--5-5-5--o||
|---------------|---------------|---------------|-----------------||

                                                        D.S. al Coda
  D               D               D       C         Bb      A
  Q  E Q  E E E   Q  E Q  E E E   E E E E E E E E   E E E E E E E E
|---------------|---------------|-----------------|------------------||
|---------------|---------------|-----------------|------------------||
|-5--5-5--5-5-5-|-5--5-5--5-5-5-|-5-5-5-5-3-3-3-3-|------------------||
|---------------|---------------|-----------------|-6-6-6-6-5-5-5-5--||

   Guitar Solo
    G                       A Bb   Eb              G       A Bb
    Q  E Q  E E E   Q  E Q  E Q    Q  E Q  E E E   Q  E Q  E Q
||----------------|--------------|---------------|--------------|
||o---------------|--------------|---------------|--------------|
||o---------------|--------------|-6--6-6--6-6-6-|--------------|
||--3--3-3--3-3-3-|-3--3-3--5-6--|---------------|-3--3-3--5-6--|

  Eb              Bb              A              G
  Q  E Q  E E E   Q  E Q  E E E   Q  E Q  E Q    Q  E Q  E E E
|---------------|---------------|--------------|-----------------||
|---------------|---------------|--------------|----------------o||
|-6--6-6--6-6-6-|---------------|--------------|----------------o||
|---------------|-6--6-6--6-6-6-|-5--5-5--6-5--|-3--3-3--3-3-3---||

  F                       G A    Bb                      C C#
  Q  E Q  E E E   Q  E Q  E Q    Q  E Q  E E E   Q  E Q  E Q
|---------------|--------------|---------------|---------------|
|---------------|--------------|---------------|---------------|
|---------------|--------------|---------------|---------3-4---|
|-1--1-1--1-1-1-|-1--1-1--3-5--|-6--6-6--6-6-6-|-6--6-6--------|

  D                               G                       A Bb
  Q  E Q  E E E   Q  E Q  E E E   Q  E Q  E E E   Q  E Q  E Q
|---------------|---------------|---------------|---------------|
|---------------|---------------|---------------|---------------|
|-5--5-5--5-5-5-|-5--5-5--5-5-5-|---------------|---------------|
|---------------|---------------|-3--3-3--3-3-3-|-3--3-3--5-6---|

  C                               G                       A Bb
  Q  E Q  E E E   Q  E Q  E E E   Q  E Q  E E E   Q  E Q  E Q
|---------------|---------------|---------------|---------------|
|---------------|---------------|---------------|---------------|
|-3--3-3--3-3-3-|-3--3-3--3-3-3-|---------------|---------------|
|---------------|---------------|-3--3-3--3-3-3-|-3--3-3--5-6---|

  A                                   D                       EbD
  E E E E E E E E   E E E E E E E E   Q  E Q  E E E   Q  E Q  E Q
|-----------------|-----------------|---------------|---------------|
|-----------------|-----------------|---------------|---------------|
|-----------------|-----------------|-5--5-5--5-5-5-|-5--5-5--6-5---|
|-5-5-5-5-5-5-5-5-|-5-5-5-5-5-5-5-5-|---------------|---------------|

  F                       G A    Bb                      C C#
  Q  E Q  E E E   Q  E Q  E Q    Q  E Q  E E E   Q  E Q  E Q
|---------------|--------------|---------------|---------------|
|---------------|--------------|---------------|---------------|
|---------------|--------------|---------------|---------3-4---|
|-1--1-1--1-1-1-|-1--1-1--3-5--|-6--6-6--6-6-6-|-6--6-6--------|

  D                               G                       A Bb
  Q  E Q  E E E   Q  E Q  E E E   Q  E Q  E E E   Q  E Q  E Q
|---------------|---------------|---------------|---------------|
|---------------|---------------|---------------|---------------|
|-5--5-5--5-5-5-|-5--5-5--5-5-5-|---------------|---------------|
|---------------|---------------|-3--3-3--3-3-3-|-3--3-3--5-6---|

  Eb                              G                       A Bb
  Q  E Q  E E E   Q  E Q  E E E   Q  E Q  E E E   Q  E Q  E Q
|---------------|---------------|---------------|---------------|
|---------------|---------------|---------------|---------------|
|-6--6-6--6-6-6-|-6--6-6--6-6-6-|---------------|---------------|
|---------------|---------------|-3--3-3--3-3-3-|-3--3-3--5-6---|

  Eb              A               D
  Q  E Q  E E E   Q  E Q  E E E   Q  E Q  E E E   Q  E Q  E Q
|---------------|---------------|---------------|---------------|
|---------------|---------------|---------------|---------------|
|-6--6-6--6-6-6-|---------------|-5--5-5--5-5-5-|-5--5-5--6-5---|
|---------------|-5--5-5--5-5-5-|---------------|---------------|

  C               F       G A    Bb      C D    Eb
  Q  E Q  E E E   Q  E Q  E Q    Q  E Q  E Q    Q  E Q  E E E
|---------------|--------------|--------------|----------------|
|---------------|--------------|--------------|----------------|
|-3--3-3--3-3-3-|--------------|---------3-5--|-6--6-6--6-6-6--|
|---------------|-1--1-1--3-5--|-6--6-6-------|----------------|

| W               W              W              W
|-8-------------|--------------|-6------------|----------------|
|-8-------------|-6------------|-6------------|-8--------------|
|-5-------------|-5------------|-3------------|-8--------------|
|---------------|-3------------|--------------|-8--------------|
|-3-------------|--------------|--------------|-6--------------|
|---------------|-1------------|-6------------|----------------|

  G               A               D                G       A Bb
  Q  E Q  E E E   Q  E Q  E E E    Q  E Q  E E E   Q  E Q  E Q
|---------------|---------------|----------------|---------------|
|---------------|---------------|----------------|---------------|
|---------------|---------------|--5--5-5--5-5-5-|---------------|
|-3--3-3--3-3-3-|-5--5-5--5-5-5-|----------------|-3--3-3--5-6---|

| W               W                W               W
|-3-------------|-5-------------|--5-------------|-6-------------|
|-3-------------|-5-------------|----------------|-8-------------|
|-3-------------|-6-------------|--7-------------|-7-------------|
|---------------|---------------|--7-------------|---------------|
|---------------|---------------|----------------|---------------|
|-3-------------|-5-------------|-10-------------|-3-------------|

  C               F       G A    Bb       C D    Eb
  Q  E Q  E E E   Q  E Q  E Q     Q  E Q  E Q     Q  E Q  E E E
|---------------|--------------|---------------|-----------------|
|---------------|--------------|---------------|-----------------|
|-3--3-3--3-3-3-|--------------|----------3-5--|--6--6-6--6-6-6--|
|---------------|-1--1-1--3-5--|--6--6-6-------|-----------------|

| W               W               W               W
|-8-------------|--------------|---------------|-11--------------|
|-8-------------|-6------------|-11------------|-11--------------|
|-5-------------|-5------------|-10------------|--8--------------|
|---------------|-3------------|--8------------|-----------------|
|-3-------------|--------------|---------------|--6--------------|
|---------------|-1------------|--6------------|-----------------|

  C                                 A
  Q  E Q  E E E    Q   E Q  E E E    E E E E E E E E     E  E E E E E E E
|---------------|-----------------|------------------|---------------------|
|---------------|-----------------|------------------|---------------------|
|-3--3-3--3-3-3-|--3---3-3--3-3-3-|------------------|---------------------|
|---------------|-----------------|--5-5-5-5-5-5-5-5-|---5--5-5-5-5-5-5-5--|

|-8-------------|-(8)-------------|------------------|---------------------|
|-8-------------|-(8)-------------|-10---------------|-(10)----------------|
|-5-------------|-(5)-------------|--9---------------|--(9)----------------|
|---------------|-----------------|--7---------------|--(7)----------------|
|-3-------------|-(3)-------------|------------------|---------------------|
|---------------|-----------------|--5---------------|--(5)----------------|

  D                                   D        C         Bb       A
   Q  E Q  E E E     Q   E Q  E E E    E E E E E E E E    E E E E E E E E
|----------------|------------------|------------------|-------------------||
|----------------|------------------|------------------|-------------------||
|--5--5-5--5-5-5-|---5---5-5--5-5-5-|--5-5-5-5-3-3-3-3-|-------------------||
|----------------|------------------|------------------|--6-6-6-6-5-5-5-5--||

|  W                +W                 H       H          H       H
|-10-------------|-(10)-------------|--5-------8-------|----------5--------||
|-10-------------|-(10)-------------|--7-------8-------|-11-------5--------||
|-11-------------|-(11)-------------|--7-------5-------|-10-------5--------||
|----------------|------------------|------------------|--8----------------||
|----------------|------------------|----------3-------|-------------------||
|-10-------------|-(10)-------------|-10---------------|--6-------5--------||

   3rd Verse
    G                               C               G       A Bb
    Q  E Q  E E E   Q  E Q  E E E   Q  E Q  E E E   Q  E Q  E Q
||----------------|---------------|---------------|--------------|
||o---------------|---------------|---------------|--------------|
||o---------------|---------------|-3--3-3--3-3-3-|--------------|
||--3--3-3--3-3-3-|-3--3-3--3-3-3-|---------------|-3--3-3--5-6--|

  Eb              Bb              F
  Q  E Q  E E E   Q  E Q  E E E   Q  E Q  E E E   Q  E Q  E E E
|---------------|---------------|---------------|----------------|
|---------------|---------------|---------------|----------------|
|-6--6-6--6-6-6-|---------------|-8--8-8--8-8-8-|-8--8-8--8-8-8--|
|---------------|-6--6-6--6-6-6-|---------------|----------------|

  D                               D
  Q  E Q  E E E   Q  E Q  E E E   Q  E Q  E E E   Q  E Q  E E E
|---------------|---------------|---------------|----------------|
|---------------|---------------|---------------|----------------|
|-5--5-5--5-5-5-|-5--5-5--5-5-5-|-5--5-5--5-5-5-|-5--5-5--5-5-5--|
|---------------|---------------|---------------|----------------|

  G       A Bb   Eb              D
  Q  E Q  E Q    Q  E Q  E E E   Q  E Q  E E E   Q  E Q  E E E
|--------------|---------------|---------------|-----------------||
|--------------|---------------|---------------|----------------o||
|--------------|-6--6-6--6-6-6-|-5--5-5--5-5-5-|-5--5-5--5-5-5--o||
|-3--3-3--5-6--|---------------|---------------|-----------------||

   Chorus
    F                           G A    Bb                          C C#
     Q  E Q  E E E     Q   E Q  E Q     Q  E Q  E E E     Q   E Q  E Q
||-----------------|-----------------|----------------|-----------------|
||o----------------|-----------------|----------------|-----------------|
||o----------------|-----------------|----------------|------------3-4--|
||---1--1-1--1-1-1-|---1---1-1--3-5--|--6--6-6--6-6-6-|---6---6-6-------|

||---8-------------|--(8)------------|----------------|-----------------|
||o-10-------------|-(10)------------|-15-------------|-(15)------------|
||--10-------------|-(10)------------|-15-------------|-(15)------------|
||-----------------|-----------------|-15-------------|-(15)------------|
||o--8-------------|--(8)------------|-13-------------|-(13)------------|
||-----------------|-----------------|----------------|-----------------|

  D                                   G                         A Bb
   Q  E Q  E E E     Q   E Q  E E E   Q  E Q  E E E    Q   E Q  E Q
|----------------|------------------|---------------|-----------------|
|----------------|------------------|---------------|-----------------|
|--5--5-5--5-5-5-|---5---5-5--5-5-5-|---------------|-----------------|
|----------------|------------------|-3--3-3--3-3-3-|--3---3-3--5-6---|

|-10-------------|-(10)-------------|-6-------------|-(6)-------------|
|-10-------------|-(10)-------------|-8-------------|-(8)-------------|
|-11-------------|-(11)-------------|-7-------------|-(7)-------------|
|----------------|------------------|-5-------------|-(5)-------------|
|----------------|------------------|---------------|-----------------|
|-10-------------|-(10)-------------|---------------|-----------------|

  Eb                                G                         A Bb
  Q  E Q  E E E    Q   E Q  E E E   Q  E Q  E E E    Q   E Q  E Q
|---------------|-----------------|---------------|-----------------|
|---------------|-----------------|---------------|-----------------|
|-6--6-6--6-6-6-|--6---6-6--6-6-6-|---------------|-----------------|
|---------------|-----------------|-3--3-3--3-3-3-|--3---3-3--5-6---|

|---------------|-----------------|-6-------------|-(6)-------------|
|-8-------------|-(8)-------------|-8-------------|-(8)-------------|
|-8-------------|-(8)-------------|-7-------------|-(7)-------------|
|-8-------------|-(8)-------------|-5-------------|-(5)-------------|
|-6-------------|-(6)-------------|---------------|-----------------|
|---------------|-----------------|---------------|-----------------|

  Eb              A               D                           EbD
  Q  E Q  E E E   Q  E Q  E E E    Q  E Q  E E E     Q   E Q  E Q
|---------------|---------------|----------------|-------------------||
|---------------|---------------|----------------|------------------o||
|-6--6-6--6-6-6-|---------------|--5--5-5--5-5-5-|---5---5-5--6-5---o||
|---------------|-5--5-5--5-5-5-|----------------|-------------------||

| W               W                W                 W
|-6-------------|-5-------------|--5-------------|--10---------------||
|-8-------------|-5-------------|--7-------------|--10--------------o||
|-8-------------|-6-------------|--7-------------|--11---------------||
|---------------|---------------|----------------|-------------------||
|-6-------------|---------------|----------------|------------------o||
|---------------|-5-------------|-10-------------|-(10)--------------||

  D                                   D        C         Bb       A
   Q  E Q  E E E     Q   E Q  E E E    E E E E E E E E    E E E E E E E E
|----------------|------------------|------------------|-------------------||
|----------------|------------------|------------------|-------------------||
|--5--5-5--5-5-5-|---5---5-5--5-5-5-|--5-5-5-5-3-3-3-3-|-------------------||
|----------------|------------------|------------------|--6-6-6-6-5-5-5-5--||

|  W                +W                 H       H          H       H
|-10-------------|-(10)-------------|--5-------8-------|----------5--------||
|-10-------------|-(10)-------------|--7-------8-------|-11-------5--------||
|-11-------------|-(11)-------------|--7-------5-------|-10-------5--------||
|----------------|------------------|------------------|--8----------------||
|----------------|------------------|----------3-------|-------------------||
|-10-------------|-(10)-------------|-10---------------|--6-------5--------||

   Interlude
    G                                                   F
    Q  E Q  E E E    Q   E Q  E E E    Q   E Q  E E E    Q   E Q  E E E
||----------------|-----------------|-----------------|-----------------|
||o---------------|-----------------|-----------------|-----------------|
||o---------------|-----------------|-----------------|-----------------|
||--3--3-3--3-3-3-|--3---3-3--3-3-3-|--3---3-3--3-3-3-|--1---1-1--1-1-1-|

||--6-------------|-(6)-------------|-(6)-------------|-(6)-------------|
||o-8-------------|-(8)-------------|-(8)-------------|-(8)-------------|
||--7-------------|-(7)-------------|-(7)-------------|-(7)-------------|
||----------------|-----------------|-----------------|-----------------|
||o---------------|-----------------|-----------------|-----------------|
||--3-------------|-(3)-------------|-(3)-------------|-(3)-------------|

  Eb                                                  D
  Q  E Q  E E E    Q   E Q  E E E    Q   E Q  E E E    Q   E Q  E E E
|---------------|-----------------|-----------------|------------------|
|---------------|-----------------|-----------------|------------------|
|-6--6-6--6-6-6-|--6---6-6--6-6-6-|--6---6-6--6-6-6-|--5---5-5--5-5-5--|
|---------------|-----------------|-----------------|------------------|

|-6-------------|-(6)-------------|-(6)-------------|-(6)--------------|
|-8-------------|-(8)-------------|-(8)-------------|-(8)--------------|
|-8-------------|-(8)-------------|-(8)-------------|-(8)--------------|
|---------------|-----------------|-----------------|------------------|
|-6-------------|-(6)-------------|-(6)-------------|-(6)--------------|
|---------------|-----------------|-----------------|------------------|

  C                                                   Eb
  Q  E Q  E E E    Q   E Q  E E E    Q   E Q  E E E    Q   E Q  E E E
|---------------|-----------------|-----------------|------------------|
|---------------|-----------------|-----------------|------------------|
|-3--3-3--3-3-3-|--3---3-3--3-3-3-|--3---3-3--3-3-3-|--6---6-6--6-6-6--|
|---------------|-----------------|-----------------|------------------|

|-8-------------|-(8)-------------|-(8)-------------|-(8)--------------|
|-8-------------|-(8)-------------|-(8)-------------|-(8)--------------|
|-5-------------|-(5)-------------|-(5)-------------|-(5)--------------|
|---------------|-----------------|-----------------|------------------|
|-3-------------|-(3)-------------|-(3)-------------|-(3)--------------|
|---------------|-----------------|-----------------|------------------|

  D                                   D
   Q  E Q  E E E     Q   E Q  E E E    Q  E Q  E E E     Q   E Q  E E E
|----------------|------------------|----------------|--------------------||
|----------------|------------------|----------------|-------------------o||
|--5--5-5--5-5-5-|---5---5-5--5-5-5-|--5--5-5--5-5-5-|---5---5-5--5-5-5--o||
|----------------|------------------|----------------|--------------------||

|--5-------------|--(5)-------------|-10-------------|-(10)---------------||
|--7-------------|--(7)-------------|-10-------------|-(10)--------------o||
|--7-------------|--(7)-------------|-11-------------|-(11)---------------||
|----------------|------------------|----------------|--------------------||
|----------------|------------------|----------------|-------------------o||
|-10-------------|-(10)-------------|-10-------------|-(10)---------------||

  D                                   D
   Q  E Q  E E E     Q   E Q  E E E    Q  E Q  E E E     Q   E Q  E E E
|----------------|------------------|----------------|-------------------|
|----------------|------------------|----------------|-------------------|
|--5--5-5--5-5-5-|---5---5-5--5-5-5-|--5--5-5--5-5-5-|---5---5-5--5-5-5--|
|----------------|------------------|----------------|-------------------|

|--5-------------|--(5)-------------|-10-------------|-(10)--------------|
|--7-------------|--(7)-------------|-10-------------|-(10)--------------|
|--7-------------|--(7)-------------|-11-------------|-(11)--------------|
|----------------|------------------|----------------|-------------------|
|----------------|------------------|----------------|-------------------|
|-10-------------|-(10)-------------|-10-------------|-(10)--------------|

  D                                   D        C         Bb       A
   Q  E Q  E E E     Q   E Q  E E E    E E E E E E E E    E E E E E E E E
|----------------|------------------|------------------|-------------------||
|----------------|------------------|------------------|-------------------||
|--5--5-5--5-5-5-|---5---5-5--5-5-5-|--5-5-5-5-3-3-3-3-|-------------------||
|----------------|------------------|------------------|--6-6-6-6-5-5-5-5--||

|  W                +W                 H       H          H       H
|-10-------------|-(10)-------------|--5-------8-------|----------5--------||
|-10-------------|-(10)-------------|--7-------8-------|-11-------5--------||
|-11-------------|-(11)-------------|--7-------5-------|-10-------5--------||
|----------------|------------------|------------------|--8----------------||
|----------------|------------------|----------3-------|-------------------||
|-10-------------|-(10)-------------|-10---------------|--6-------5--------||

 Outro
  G                                    F
|----------|------------|------------|--------|
|----------|------------|------------|--------|
|----------|------------|------------|--------|
|-3--------|-(3)--------|-(3)--------|--1-----|

|-6--------|-(6)--------|-(6)--------|-(6)----|
|-8--------|-(8)--------|-(8)--------|-(8)----|
|-7--------|-(7)--------|-(7)--------|-(7)----|
|----------|------------|------------|--------|
|----------|------------|------------|--------|
|-3--------|-(3)--------|-(3)--------|-(3)----|

  Eb                                   D
|----------|------------|------------|--------|
|----------|------------|------------|--------|
|-6--------|-(6)--------|-(6)--------|--5-----|
|----------|------------|------------|--------|

|-6--------|-(6)--------|-(6)--------|-(6)----|
|-8--------|-(8)--------|-(8)--------|-(8)----|
|-8--------|-(8)--------|-(8)--------|-(8)----|
|----------|------------|------------|--------|
|-6--------|-(6)--------|-(6)--------|-(6)----|
|----------|------------|------------|--------|

  G                       G
|----------|------------|------------|--------|
|----------|------------|------------|--------|
|----------|------------|------------|--------|
|-3--------|-(3)--------|-(3)--------|-(3)----|

|-6--------|-(6)--------|-(6)--------|-(6)----|
|-8--------|-(8)--------|-(8)--------|-(8)----|
|-7--------|-(7)--------|-(7)--------|-(7)----|
|----------|------------|------------|--------|
|----------|------------|------------|--------|
|-3--------|-(3)--------|-(3)--------|-(3)----|

  G                         G
|------------|------------|------------|--------*|
|------------|------------|------------|--------*|
|------------|------------|------------|--------*|
|-(3)--------|-(3)--------|-(3)--------|-(3)----*|

|--6---------|-(6)--------|-(6)--------|-(6)----*|
|--8---------|-(8)--------|-(8)--------|-(8)----*|
|--7---------|-(7)--------|-(7)--------|-(7)----*|
|------------|------------|------------|--------*|
|------------|------------|------------|--------*|
|--3---------|-(3)--------|-(3)--------|-(3)----*|

Duration Legend
---------------

W - whole; H - half; Q - quarter; E - 8th; S - 16th; T - 32nd; X - 64th; a - acciaccatura
+ - note tied to previous; . - note dotted; .. - note double dotted
Uncapitalized letters represent notes that are staccato (1/2 duration)
duration for.  Duration letters with no t number below them represent rests.  Multi-
bar rests are notated in the form Wxn, where n is the number of bars to rest for.  Low
----------------

 h   - hammer-on
 b   - bend
 pb  - pre-bend
 r   - bend release (if no number after the r, then release immediately)
 s   - legato slide
 S   - shift slide
 - natural harmonic
n  - artificial harmonic
n(n) - tapped harmonic
 ~   - vibrato
 T   - tap
 PM  - palm muting
\n/  - tremolo bar dip; n = amount to dip
 =   - hold bend; also acts as connecting device for hammers/pulls
 x   - on rhythm slash represents muted slash
Misc Legend
-----------

||o - repeat start

 &  - Coda
Tempo markers -  = BPM(8/16=s8/s16), where s8 = swing 8ths, s16 = swing 16ths
						
# Artist Title Tabdesignator