Quo Vadis

Silence Calls The Storm


							
-------------------------------------------------------------------------------

-------------------------------------------------------------------------------

Tuning: Standard
     S S S S S S S S Q    S S S S    Q    S S S S S S S S S S S S
G||-------------------------------|-------------------------------|
D||-------------------------------|-------------------------------|
A||-------------------------------|-------------------------------|
E||--0-0-0-0-0-0-0-0-0----0-0-0-0-|--0----0-0-0-0-0-0-0-0-0-0-0-0-|

  S S S S S S S S Q    S S S S    Q    S S S S S S S S S S S S
-------------------------------|-------------------------------|
-------------------------------|-------------------------------|
-------------------------------|-------------------------------|
--0-0-0-0-0-0-0-0-0----0-0-0-0-|--0----0-0-0-0-0-0-0-0-0-0-0-0-|

  S S S S S S S S Q    S S S S    Q    S S S S S S S S S S S S
-------------------------------|-------------------------------|
-------------------------------|-------------------------------|
--3-3-3-3-3-3-3-3-3----3-3-3-3-|--3----3-3-3-3-3-3-3-3-3-3-3-3-|
-------------------------------|-------------------------------|

  S S S S S S S S Q    S S S S    Q    S S S S S S S S S S S S
-------------------------------|-------------------------------|
-------------------------------|-------------------------------|
-------------------------------|-------------------------------|
--5-5-5-5-5-5-5-5-5----5-5-5-5-|--5----5-5-5-5-5-5-5-5-5-5-5-5-|

  S S S S S S S S Q    S S S S    Q    S S S S S S S S S S S S
-------------------------------|-------------------------------|
-------------------------------|-------------------------------|
-------------------------------|-------------------------------|
--0-0-0-0-0-0-0-0-0----0-0-0-0-|--0----0-0-0-0-0-0-0-0-0-0-0-0-|

  S S S S S S S S Q    S S S S    Q    S S S S S S S S S S S S
-------------------------------|-------------------------------|
-------------------------------|-------------------------------|
-------------------------------|-------------------------------|
--0-0-0-0-0-0-0-0-0----0-0-0-0-|--0----0-0-0-0-0-0-0-0-0-0-0-0-|

  S S S S S S S S Q    S S S S    Q    S S S S S S S S S S S S
-------------------------------|-------------------------------|
-------------------------------|-------------------------------|
--3-3-3-3-3-3-3-3-3----3-3-3-3-|--3----3-3-3-3-3-3-3-3-3-3-3-3-|
-------------------------------|-------------------------------|

  S S S S S S S S Q    S S S S    Q    S S S S S S S S S S S S
-------------------------------|-------------------------------|
-------------------------------|-------------------------------|
-------------------------------|-------------------------------|
--5-5-5-5-5-5-5-5-5----5-5-5-5-|--5----5-5-5-5-5-5-5-5-5-5-5-5-|

  S S S S S S S S Q    S S S S    Q    S S S S S S S S S S S S
-------------------------------|-------------------------------|
-------------------------------|-------------------------------|
-------------------------------|-------------------------------|
--0-0-0-0-0-0-0-0-0----0-0-0-0-|--0----0-0-0-0-0-0-0-0-0-0-0-0-|

                                                     |--3--|

  S S S S S S S S Q    S S S S    Q    S S S S E  E  E  E  E
-------------------------------|---------------------7--9--7--|
-------------------------------|------------------------------|
-------------------------------|---------------7--9-----------|
--0-0-0-0-0-0-0-0-0----0-0-0-0-|--0----0-0-0-0----------------|

  S S S S S S S S Q    S S S S    Q    S S S S S S S S S S S S
-------------------------------|-------------------------------|
-------------------------------|-------------------------------|
--3-3-3-3-3-3-3-3-3----3-3-3-3-|--3----3-3-3-3-3-3-3-3-3-3-3-3-|
-------------------------------|-------------------------------|

  S S S S S S S S Q    S S S S    Q    S S S S E  E  Q
-------------------------------|--------------------------|
-------------------------------|--------------------------|
-------------------------------|---------------3--2--3----|
--5-5-5-5-5-5-5-5-5----5-5-5-5-|--3----5-5-5-5------------|

  S S S S S S S S Q    S S S S    Q    S S S S S S S S S S S S
-------------------------------|-------------------------------|
-------------------------------|-------------------------------|
-------------------------------|-------------------------------|
--0-0-0-0-0-0-0-0-0----0-0-0-0-|--0----0-0-0-0-0-0-0-0-0-0-0-0-|

                                                     |--3--|

  S S S S S S S S Q    S S S S    Q    S S S S E  E  E  E  E
-------------------------------|---------------------7--9--7--|
-------------------------------|------------------------------|
-------------------------------|---------------7--9-----------|
--0-0-0-0-0-0-0-0-0----0-0-0-0-|--0----0-0-0-0----------------|

  S S S S S S S S Q    S S S S    Q    S S S S S S S S S S S S
-------------------------------|-------------------------------|
-------------------------------|-------------------------------|
--3-3-3-3-3-3-3-3-3----3-3-3-3-|--3----3-3-3-3-3-3-3-3-3-3-3-3-|
-------------------------------|-------------------------------|

  S S S S S S S S Q    S S S S    Q    S S S S E  E  Q
-------------------------------|--------------------------|
-------------------------------|--------------------------|
-------------------------------|---------------3--2--3----|
--5-5-5-5-5-5-5-5-5----5-5-5-5-|--5----5-5-5-5------------|

  S S S S S S S S Q    S S S S    Q    S S S S S S S S S S S S
-------------------------------|-------------------------------|
-------------------------------|-------------------------------|
-------------------------------|-------------------------------|
--0-0-0-0-0-0-0-0-0----0-0-0-0-|--0----0-0-0-0-0-0-0-0-0-0-0-0-|

                                                     |--3--|

  S S S S S S S S Q    S S S S    Q    S S S S E  E  E  E  E
-------------------------------|---------------------7--9--7--|
-------------------------------|------------------------------|
-------------------------------|---------------7--9-----------|
--0-0-0-0-0-0-0-0-0----0-0-0-0-|--0----0-0-0-0----------------|

  S S S S S S S S Q    S S S S    Q    S S S S S S S S S S S S
-------------------------------|-------------------------------|
-------------------------------|-------------------------------|
--3-3-3-3-3-3-3-3-3----3-3-3-3-|--3----3-3-3-3-3-3-3-3-3-3-3-3-|
-------------------------------|-------------------------------|

  S S S S S S S S Q    S S S S    Q    S S S S E  E  Q
-------------------------------|--------------------------|
-------------------------------|--------------------------|
-------------------------------|---------------3--2--3----|
--5-5-5-5-5-5-5-5-5----5-5-5-5-|--3----5-5-5-5------------|

  S S S S S S S S Q    S S S S    Q    S S S S S S S S S S S S
-------------------------------|-------------------------------|
-------------------------------|-------------------------------|
-------------------------------|-------------------------------|
--0-0-0-0-0-0-0-0-0----0-0-0-0-|--0----0-0-0-0-0-0-0-0-0-0-0-0-|

                                                     |--3--|

  S S S S S S S S Q    S S S S    Q    S S S S E  E  E  E  E
-------------------------------|---------------------7--9--7--|
-------------------------------|------------------------------|
-------------------------------|---------------7--9-----------|
--0-0-0-0-0-0-0-0-0----0-0-0-0-|--0----0-0-0-0----------------|

  S S S S S S S S Q    S S S S    Q    S S S S S S S S S S S S
-------------------------------|-------------------------------|
-------------------------------|-------------------------------|
--3-3-3-3-3-3-3-3-3----3-3-3-3-|--3----3-3-3-3-3-3-3-3-3-3-3-3-|
-------------------------------|-------------------------------|

  S S S S S S S S Q    S S S S    Q    S S S S E  E  Q
-------------------------------|--------------------------|
-------------------------------|--------------------------|
-------------------------------|---------------3--2--3----|
--5-5-5-5-5-5-5-5-5----5-5-5-5-|--5----5-5-5-5------------|

-------------------|-------------------|-------------------|
-------------------|-------------------|-------------------|
-------------------|-------------------|-------------------|
--0----------------|--L----------------|--L----------------|

  H.           E  E     W                   W
------------------7--|--9----------------|--L----------------|
---------------------|-------------------|-------------------|
---------------------|-------------------|-------------------|
--L------------L-----|-------------------|-------------------|

  Q     Q     Q    Q       Q    Q     Q    Q         W
--9---------------------|-----------------------|----------------------|
-------10----10----9----|--7----9----10----9----|--/14~----------------|
------------------------|-----------------------|----------------------|
------------------------|-----------------------|----------------------|

  H.           Q        W                   Q     Q     Q     Q
--L------------------|-------------------|-------11----12----11----|
---------------7S----|--9----------------|--L----------------------|
---------------------|-------------------|-------------------------|
---------------------|-------------------|-------------------------|

   Q     Q     H            Q     Q     H           Q    E   E   Q    Q
--------------16--------|--------------16--------|--9----7h--9-------------|
--------14--------------|--------14--------------|--------------10----9----|
--15--------------------|--14--------------------|-------------------------|
------------------------|------------------------|-------------------------|

  Q     Q    Q     Q        E   E  E  E   E   E  E  E
------------------------|------------------------------|
--7---------------------|--10--10--------10--10--------|
-------10----9S---------|------------------------------|
-------------------7----|----------8--8----------8--8--|

   E   E  E  E   E   E  E  E      E   E   E   E   E   E   E   E
------------------------------|----------------------------------|
--10--10--------10--10--------|--12--12----------12--12----------|
------------------------------|----------------------------------|
----------8--8----------8--8--|----------10--10----------10--10--|

   E   E   E   E   E   E  E  E     E  E  E  E  E  E  E  E
--------------------------------|--------------------------|
--12--12----------12--12--------|--9--9--------9--9--------|
--------------------------0--0--|--------------------------|
----------10--10----------------|--------7--7--------7--7--|

  E  E  E  E  E  E  E  E
--------------------------|
--9--9--------9--9--------|
--------------------------|
--------7--7--------7--7--|

   E             E   S  S  S  S  E   E   S  S  S  S
--------------------16-16-16-16---------16-16-16-16-|
----------------------------------------------------|
--14------------14--------------14--14--------------|
----------------------------------------------------|

   S  S  E   S  S  E   S   S   E   Q
----------------------------------------|
--14-14-14--14-14-14--------------------|
----------------------15h-17p-15--15----|
----------------------------------------|

  E  E   S  S  S  S E  E   S  S  S  S
--------------------------------------|
--------10-10-10-10-------10-10-10-10-|
--------------------------------------|
--8--8--------------8--8--------------|

  E  E   S  S  S  S E  E   S  S  S  S
--------------------------------------|
--------10-10-10-10-------10-10-10-10-|
--------------------------------------|
--8--8--------------8--8--------------|

   E   E   S  S  S  S  E   E   S  S  S  S
------------------------------------------|
----------12-12-12-12---------12-12-12-12-|
------------------------------------------|
--10--10--------------10--10--------------|

   E   E   S  S  S  S  E   E   S  S  S  S
------------------------------------------|
----------12-12-12-12---------12-12-12-12-|
------------------------------------------|
--10--10--------------10--10--------------|

   E   E   S  S  S  S  E   E   S  S  S  S
------------------------------------------|
----------14-14-14-14---------14-14-14-14-|
------------------------------------------|
--12--12--------------12--12--------------|

   E   E   S  S  S  S  E   E   S  S  S  S
------------------------------------------|
----------14-14-14-14---------14-14-14-14-|
------------------------------------------|
--12--12--------------12--12--------------|

   S  S  S  S  S  S  S  S  S  S  S  S  S  S  S  S
--------------11-11-11-11-12-12-12-12-14-14-14-14-|
--14-14-14-14-------------------------------------|
--------------------------------------------------|
--------------------------------------------------|

   S  S  S  S  S  S  S  S   Q     Q        E  E  E  Q    E  E  E
--12-12-12-12-11-11-11-11---------------|-------------------------|-----|
--------------------------/14----13\----|-------------------------|-----|
----------------------------------------|-------------------------|-----|
----------------------------------------|--0-----0-------0-----0--|-----|

  E  E  E  Q    E  E  E             E  E  E  Q    E  E  E
-------------------------|-------|-------------------------|-------|
-------------------------|-------|-------------------------|-------|
-------------------------|-------|-------------------------|-------|
--0-----0-------0-----0--|-------|--0-----0-------0-----0--|-------|

  E  E  E  Q    E  E  E             E  E  E  E  E  E  E  E
-------------------------|-------|--------------------------|
-------------------------|-------|--------------------------|
-------------------------|-------|--------------------------|
--0-----0-------0-----0--|-------|--0--2--3--3--L--0--2--0--|

  E  E  E  E  E  E  E  E     E  E  E  E  E  E  E  E
--------------------------|--7--9--7--5--4-----------|
--------------------------|-----------------7--5--4--|
-----------------5--7--9--|--------------------------|
--0--2--3--2--0-----------|--------------------------|

  E  E  E  E  E  E  E  E     E  E  E  E  E  E  E  E
--------------------------|--------------------------|
--------------------------|--------------------------|
--------------------------|--------------------------|
--0--0--0--0--0--3--0--2--|--0--2--3--3--L--0--2--0--|

  E  E  E  E  E  E  E  E     E  E  E  E  E  E  E  E
--------------------------|--7--9--7--5--4-----------|
-----------7--------------|-----------------7--5--4--|
-----------------5--7--9--|--------------------------|
--0--2--3-----0-----------|--------------------------|

  E  E  E  E  E  E  E  E     E  E  E  E  E  E   E.    S
--------------------------|------------------------------|
--------------------------|--------4---------------------|
--------------------------|--------------------10S---(5)-|
--0--0--0--0--0--3--0--2--|--2--2-----2--2--2------------|

  E  E  E  E  E  E  E  E     E  E  E  E  E  E  E  E
--------------------------|--------------------------|
--------------------------|--------------------------|
--------------------------|-----------------5--7--9--|
--0--2--3--3--L--0--2--0--|--0--2--3--2--0-----------|

  E  E  E  E  E  E  E  E     E  E  E  E  E  E  E  E
--7--9--7--5--4-----------|--------------------------|
-----------------7--5--4--|--------------------------|
--------------------------|--------------------------|
--------------------------|--0--0--0--0--0--3--0--2--|

  E  E  E  E  E  E  E  E     E  E  E  E  E  E  E  E
--------------------------|--------------------------|
--------------------------|-----------7--------------|
--------------------------|-----------------5--7--9--|
--0--2--3--3--L--0--2--0--|--0--2--3-----0-----------|

  E  E  E  E  E  E  E  E     E  E  E  E  E  E  E  E
--7--9--7--5--4-----------|--------------------------|
-----------------7--5--4--|--------------------------|
--------------------------|-----------------------9--|
--------------------------|--0--0--0--0--0--3--0-----|

  E   E   E   E   E   E   E.   S    S S S S S S S S Q    S S S S
---------11--------------11s---0-|-------------------------------|
---------------------------------|-------------------------------|
--9--12------12--12--14----------|-------------------------------|
---------------------------------|--0-0-0-0-0-0-0-0-0----0-0-0-0-|

  Q    S S S S S S S S S S S S    S S S S S S S S Q    S S S S
-------------------------------|-------------------------------|
-------------------------------|-------------------------------|
-------------------------------|-------------------------------|
--0----0-0-0-0-0-0-0-0-0-0-0-0-|--0-0-0-0-0-0-0-0-0----0-0-0-0-|

                     |--3--|

  Q    S S S S E  E  E  E  E     S S S S S S S S Q    S S S S
---------------------7--9--7--|-------------------------------|
------------------------------|-------------------------------|
---------------7--9-----------|--3-3-3-3-3-3-3-3-3----3-3-3-3-|
--0----0-0-0-0----------------|-------------------------------|

  Q    S S S S S S S S S S S S    S S S S S S S S Q    S S S S
-------------------------------|-------------------------------|
-------------------------------|-------------------------------|
--3----3-3-3-3-3-3-3-3-3-3-3-3-|-------------------------------|
-------------------------------|--5-5-5-5-5-5-5-5-5----5-5-5-5-|

  Q    S S S S E  E  Q       S S S S S S S S Q    S S S S
--------------------------|-------------------------------|
--------------------------|-------------------------------|
---------------3--2--3----|-------------------------------|
--3----5-5-5-5------------|--0-0-0-0-0-0-0-0-0----0-0-0-0-|

  Q    S S S S S S S S S S S S    S S S S S S S S Q    S S S S
-------------------------------|-------------------------------|
-------------------------------|-------------------------------|
-------------------------------|-------------------------------|
--0----0-0-0-0-0-0-0-0-0-0-0-0-|--0-0-0-0-0-0-0-0-0----0-0-0-0-|

                     |--3--|

  Q    S S S S E  E  E  E  E     S S S S S S S S Q    S S S S
---------------------7--9--7--|-------------------------------|
------------------------------|-------------------------------|
---------------7--9-----------|--3-3-3-3-3-3-3-3-3----3-3-3-3-|
--0----0-0-0-0----------------|-------------------------------|

  Q    S S S S S S S S S S S S    S S S S S S S S Q    S S S S
-------------------------------|-------------------------------|
-------------------------------|-------------------------------|
--3----3-3-3-3-3-3-3-3-3-3-3-3-|-------------------------------|
-------------------------------|--5-5-5-5-5-5-5-5-5----5-5-5-5-|

  Q    S S S S E  E  Q       E  Q    E   Q.       E
--------------------------|---------------------------|
--------------------------|---------------------------|
---------------3--2--3----|----------5--/7S------(x)--|
--5----5-5-5-5------------|--2--3---------------------|

  E  E  E  E  H           E  Q    E   Q.       E      E  E  E  E  H
-----------------------|---------------------------|-----------------------|
-----------------------|---------------------------|-----------------------|
-----------------------|----------5--/7S------(x)--|-----------------------|
--0--0--0--0--0--------|--2--3---------------------|--0--0-----0--0--------|

       |--3--|  |--3--|  |--3--|

  Q    E  E  E  E  E  E  E  E  E     E  Q    E  H
----------------------------------|----------------------|
----------------------------------|----------------------|
--3----3--3--3--3--3--3--3--3--3--|----------------------|
----------------------------------|--2--3----3--3--------|

       |--3--|  |--3--|  |--3--|

  Q    E  E  E  E  E  E  E  E  E     E  Q    E  H
----------------------------------|----------------------|
----------------------------------|----------------------|
----------------------------------|----------------------|
--5----5--5--5--5--5--5--5--5--5--|--2--3----3--2--------|

  E  E  E  E  H           E  Q    E   Q.       E      E  E  E  E  H
-----------------------|---------------------------|-----------------------|
-----------------------|---------------------------|-----------------------|
-----------------------|----------5--/7S------(x)--|-----------------------|
--0--0--0--0--0--------|--2--3---------------------|--0--0-----0--0--------|

                                   |--3--|  |--3--|  |--3--|

  E  Q    E   Q.       E      Q    E  E  E  E  E  E  E  E  E
---------------------------|----------------------------------|
---------------------------|----------------------------------|
----------5--/7S------(x)--|--3----3--3--3--3--3--3--3--3--3--|
--2--3---------------------|----------------------------------|

                              |--3--|  |--3--|  |--3--|

  E  Q    E  H           Q    E  E  E  E  E  E  E  E  E
----------------------|----------------------------------|
----------------------|----------------------------------|
----------------------|----------------------------------|
--2--3----3--3--------|--5----5--5--5--5--5--5--5--5--5--|

  E  Q    E  H           E  Q    E  Q    E  E     E  E  Q    Q    Q
----------------------|------------------------|-----------------------|
----------------------|------------------------|-----------------------|
----------------------|------------------------|-----------------------|
--2--3----3--2--------|--0--0----0--0----0--0--|--L--0--0----0----0----|

  E  Q    E  Q    E  E     E  E  Q    Q    Q       E  Q    E  Q    E  E
------------------------|-----------------------|------------------------|
------------------------|-----------------------|------------------------|
------------------------|-----------------------|------------------------|
--0--0----0--0----0--0--|--L--0--0----0----0----|--0--0----0--0----0--0--|

  E  E  Q    Q    Q       E  Q    E  Q    E  E      H        H
-----------------------|-------------------------|--------------------|
-----------------------|-------------------------|--------------------|
-----------------------|---------------------7\--|--L-----------------|
--L--0--0----0----0----|--0--0----0--0----0------|--------------------|

  E  E  E  E  E  E  E  E     E  E  E  E  E  E  E  E
--------------------------|--------------------------|
--------------------------|--------------------------|
--------------------------|-----------------5--7--9--|
--0--2--3--3--L--0--2--0--|--0--2--3--2--0-----------|

  E  E  E  E  E  E  E  E     E  E  E  E  E  E  E  E
--7--9--7--5--4-----------|--------------------------|
-----------------7--5--4--|--------------------------|
--------------------------|--------------------------|
--------------------------|--0--0--0--0--0--3--0--2--|

  E  E  E  E  E  E  E  E     E  E  E  E  E  E  E  E
--------------------------|--------------------------|
--------------------------|-----------7--------------|
--------------------------|-----------------5--7--9--|
--0--2--3--3--L--0--2--0--|--0--2--3-----0-----------|

  E  E  E  E  E  E  E  E     E  E  E  E  E  E  E  E
--7--9--7--5--4-----------|--------------------------|
-----------------7--5--4--|--------------------------|
--------------------------|--------------------------|
--------------------------|--0--0--0--0--0--3--0--2--|

  E  E  E  E  E  E   E.    S     E  E  E  E  E  E  E  E
------------------------------|--------------------------|
--------4---------------------|--------------------------|
--------------------10S---(5)-|--------------------------|
--2--2-----2--2--2------------|--0--2--3--3--L--0--2--0--|

  E  E  E  E  E  E  E  E     E  E  E  E  E  E  E  E
--------------------------|--7--9--7--5--4-----------|
--------------------------|-----------------7--5--4--|
-----------------5--7--9--|--------------------------|
--0--2--3--2--0-----------|--------------------------|

  E  E  E  E  E  E  E  E     E  E  E  E  E  E  E  E
--------------------------|--------------------------|
--------------------------|--------------------------|
--------------------------|--------------------------|
--0--0--0--0--0--3--0--2--|--0--2--3--3--L--0--2--0--|

  E  E  E  E  E  E  E  E     E  E  E  E  E  E  E  E
--------------------------|--7--9--7--5--4-----------|
-----------7--------------|-----------------7--5--4--|
-----------------5--7--9--|--------------------------|
--0--2--3-----0-----------|--------------------------|

  E  E  E  E  E  E  E  E     E   E   E   E   E   E   E.    S
--------------------------|---------11------------------------|
--------------------------|-------------------------16S---(5)-|
-----------------------9--|--9--12------12--12--14------------|
--0--0--0--0--0--3--0-----|-----------------------------------|

  S S S S S S S S Q    S S S S    Q    S S S S S S S S S S S S
-------------------------------|-------------------------------|
-------------------------------|-------------------------------|
-------------------------------|-------------------------------|
--0-0-0-0-0-0-0-0-0----0-0-0-0-|--0----0-0-0-0-0-0-0-0-0-0-0-0-|

                                                     |--3--|

  S S S S S S S S Q    S S S S    Q    S S S S E  E  E  E  E
-------------------------------|---------------------7--9--7--|
-------------------------------|------------------------------|
-------------------------------|---------------7--9-----------|
--0-0-0-0-0-0-0-0-0----0-0-0-0-|--0----0-0-0-0----------------|

  S S S S S S S S Q    S S S S    Q    S S S S S S S S S S S S
-------------------------------|-------------------------------|
-------------------------------|-------------------------------|
--3-3-3-3-3-3-3-3-3----3-3-3-3-|--3----3-3-3-3-3-3-3-3-3-3-3-3-|
-------------------------------|-------------------------------|

  S S S S S S S S Q    S S S S    Q    S S S S E  E  Q
-------------------------------|--------------------------|
-------------------------------|--------------------------|
-------------------------------|---------------3--2--3----|
--5-5-5-5-5-5-5-5-5----5-5-5-5-|--3----5-5-5-5------------|

  S S S S S S S S Q    S S S S    Q    S S S S S S S S S S S S
-------------------------------|-------------------------------|
-------------------------------|-------------------------------|
-------------------------------|-------------------------------|
--0-0-0-0-0-0-0-0-0----0-0-0-0-|--0----0-0-0-0-0-0-0-0-0-0-0-0-|

                                                     |--3--|

  S S S S S S S S Q    S S S S    Q    S S S S E  E  E  E  E
-------------------------------|---------------------7--9--7--|
-------------------------------|------------------------------|
-------------------------------|---------------7--9-----------|
--0-0-0-0-0-0-0-0-0----0-0-0-0-|--0----0-0-0-0----------------|

  S S S S S S S S Q    S S S S    Q    S S S S S S S S S S S S
-------------------------------|-------------------------------|
-------------------------------|-------------------------------|
--3-3-3-3-3-3-3-3-3----3-3-3-3-|--3----3-3-3-3-3-3-3-3-3-3-3-3-|
-------------------------------|-------------------------------|

  S S S S S S S S Q    S S S S    Q    S S S S E  E  Q
-------------------------------|--------------------------|
-------------------------------|--------------------------|
-------------------------------|---------------3--2--3----|
--5-5-5-5-5-5-5-5-5----5-5-5-5-|--5----5-5-5-5------------|

  E  Q    E   Q.       E      E  E  E  E  H
---------------------------|-----------------------|
---------------------------|-----------------------|
----------5--/7S------(x)--|-----------------------|
--2--3---------------------|--0--0--0--0--0--------|

  E  Q    E   Q.       E      E  E  E  E  H
---------------------------|-----------------------|
---------------------------|-----------------------|
----------5--/7S------(x)--|-----------------------|
--2--3---------------------|--0--0-----0--0--------|

       |--3--|  |--3--|  |--3--|

  Q    E  E  E  E  E  E  E  E  E     E  Q    E  H
----------------------------------|----------------------|
----------------------------------|----------------------|
--3----3--3--3--3--3--3--3--3--3--|----------------------|
----------------------------------|--2--3----3--3--------|

       |--3--|  |--3--|  |--3--|

  Q    E  E  E  E  E  E  E  E  E     E  Q    E  H
----------------------------------|----------------------|
----------------------------------|----------------------|
----------------------------------|----------------------|
--5----5--5--5--5--5--5--5--5--5--|--2--3----3--2--------|

  E  E  E  E  H           E  Q    E   Q.       E      E  E  E  E  H
-----------------------|---------------------------|-----------------------|
-----------------------|---------------------------|-----------------------|
-----------------------|----------5--/7S------(x)--|-----------------------|
--0--0--0--0--0--------|--2--3---------------------|--0--0-----0--0--------|

                                   |--3--|  |--3--|  |--3--|

  E  Q    E   Q.       E      Q    E  E  E  E  E  E  E  E  E
---------------------------|----------------------------------|
---------------------------|----------------------------------|
----------5--/7S------(x)--|--3----3--3--3--3--3--3--3--3--3--|
--2--3---------------------|----------------------------------|

                              |--3--|  |--3--|  |--3--|

  E  Q    E  H           Q    E  E  E  E  E  E  E  E  E
----------------------|----------------------------------|
----------------------|----------------------------------|
----------------------|----------------------------------|
--2--3----3--3--------|--5----5--5--5--5--5--5--5--5--5--|

  E  Q    E  H           E  Q    E  Q    E  E     E  E  Q    Q    Q
----------------------|------------------------|-----------------------|
----------------------|------------------------|-----------------------|
----------------------|------------------------|-----------------------|
--2--3----3--2--------|--0--0----0--0----0--0--|--L--0--0----0----0----|

  E  Q    E  Q    E  E     E  E  Q    Q    Q       E  Q    E  Q    E  E
------------------------|-----------------------|------------------------|
------------------------|-----------------------|------------------------|
------------------------|-----------------------|------------------------|
--0--0----0--0----0--0--|--L--0--0----0----0----|--0--0----0--0----0--0--|

  E  E  Q    Q    Q       E  Q    E  Q    E  E     H
-----------------------|------------------------|-----------|-------|
-----------------------|------------------------|-----------|-------|
-----------------------|------------------------|-----------|-------|
--L--0--0----0----0----|--0--0----0--0----0--0--|-----------|-------|

                                                 |--3-|

          H        Q    E  S S    S S S S S S E  S  S S E  E      E
-------|---------------------7-|--9---9---9------9-11-9-7--4---------|
-------|-----------------------|----------------------------------2--|
-------|-----------------------|-------------------------------------|
-------|-----------------------|-------------------------------------|

  E.  S Q     E  E  E  E     E.  S E  Q.        E    E
--------------------------|------------------xg(5)--(5)--|
--------------------------|------------------------------|
--------7\----------------|--3---3-3----------xg3----3---|
--0---0----------0--0-----|------------------------------|

  E.  S Q     E  E  S S E     E.  S E  S S E  E  E.    S
---------------------------|---------------5--5--7S---(x)-|
---------------------------|------------------------------|
--------7\-----------------|--3---3-3----0-3--3--5S---(x)-|
--0---0----------0--0-0----|------------------------------|

                                                   |-3-|

  E.  S Q     E  E  E  E     E.  S      E  Q    E  S S S E
--------------------------|------5-----------------5-7-5-2--|
--------------------------|---------------------------------|
--------7\----------------|--3----------3-------3-----------|
--0---0----------0--0-----|---------------------------------|

  E.  S Q     E  E  S S E     E.  S      E  Q    E  E  E
---------------------------|------5-----------------5--7--|
---------------------------|------------------------------|
--------7\-----------------|--3----------3-------3--------|
--0---0----------0--0-0----|------------------------------|

                                                   |-3-|

  E.  S Q     E  E  E  E     E.  S      E  Q    E  S S S E
--------------------------|------5-----------------5-7-5-2--|
--------------------------|---------------------------------|
--------7\----------------|--3----------3-------3-----------|
--0---0----------0--0-----|---------------------------------|

  E.  S Q     E  E  S S E     E.  S      E  E  S     S S S S S S S
---------------------------|------5----------------------5-7-5-----|
---------------------------|---------------------------5-------5---|
--------7\-----------------|--3----------3-----------7-----------7-|
--0---0----------0--0-0----|-------------------8-------------------|

  E  E  E  E  E  E  E  E     E  E  E  Q    E  E  E
--------------------------|-------------------------|
--------------------------|-------------------------|
--------------------------|--3--3--3--5----5--5--5--|
--0--0--0--0--0--0--0--0--|-------------------------|

  E  E  E  E  E  E  E  E     E  E  E  Q    E  E  E
--------------------------|-------------------------|
--------------------------|-------------------------|
--------------------------|--3--3--3--5----5--5--5--|
--0--0--0--0--0--0--0--0--|-------------------------|

  E  E  E  E  E  E  E  E     E  E  E  Q    E  E  E
--------------------------|-------------------------|
--------------------------|-------------------------|
--------------------------|--3--3--3--5----5--5--5--|
--0--0--0--0--0--0--0--0--|-------------------------|

  E  E  E  E  E  E  E  E     S S S  S  S  S S S S S  S  S S S  S S
--------------------------|--9-9-7h-9-------------------------16---|
--------------------------|-----------10-10-9-9-7-7----------------|
--------------------------|-------------------------10-10-9-9------|
--0--0--0--0--0--0--0--0--|----------------------------------------|

   E   E  E  E   E   E  E  E      E   E  E  E   E   E  E  E
------------------------------|------------------------------|
--10--10--------10--10--------|--10--10--------10--10--------|
------------------------------|------------------------------|
----------8--8----------8--8--|----------8--8----------8--8--|

   E   E   E   E   E   E   E   E      E   E   E   E   E   E  E  E
----------------------------------|--------------------------------|
--12--12----------12--12----------|--12--12----------12--12--------|
----------------------------------|--------------------------0--0--|
----------10--10----------10--10--|----------10--10----------------|

  E  E  E  E  E  E  E  E     E  E  E  E  E  E  E  E
--------------------------|--------------------------|
--9--9--------9--9--------|--9--9--------9--9--------|
--------------------------|--------------------------|
--------7--7--------7--7--|--------7--7--------7--7--|

   E             E   S  S  S  S  E   E   S  S  S  S
--------------------16-16-16-16---------16-16-16-16-|
----------------------------------------------------|
--14------------14--------------14--14--------------|
----------------------------------------------------|

   S  S  E   S  S  E   S   S   E   Q
----------------------------------------|
--14-14-14--14-14-14--------------------|
----------------------15h-17p-15--15----|
----------------------------------------|

  E  E   S  S  S  S E  E   S  S  S  S
--------------------------------------|
--------10-10-10-10-------10-10-10-10-|
--------------------------------------|
--8--8--------------8--8--------------|

  E  E   S  S  S  S E  E   S  S  S  S
--------------------------------------|
--------10-10-10-10-------10-10-10-10-|
--------------------------------------|
--8--8--------------8--8--------------|

   E   E   S  S  S  S  E   E   S  S  S  S
------------------------------------------|
----------12-12-12-12---------12-12-12-12-|
------------------------------------------|
--10--10--------------10--10--------------|

   E   E   S  S  S  S  E   E   S  S  S  S
------------------------------------------|
----------12-12-12-12---------12-12-12-12-|
------------------------------------------|
--10--10--------------10--10--------------|

   E   E   S  S  S  S  E   E   S  S  S  S
------------------------------------------|
----------14-14-14-14---------14-14-14-14-|
------------------------------------------|
--12--12--------------12--12--------------|

   E   E   S  S  S  S  E   E   S  S  S  S
------------------------------------------|
----------14-14-14-14---------14-14-14-14-|
------------------------------------------|
--12--12--------------12--12--------------|

   S  S  S  S  S  S  S  S  S  S  S  S  S  S  S  S
--------------11-11-11-11-12-12-12-12-14-14-14-14-|
--14-14-14-14-------------------------------------|
--------------------------------------------------|
--------------------------------------------------|

   S  S  S  S  S  S  S  S   Q     Q        E  E  E  Q    E  E  E
--12-12-12-12-11-11-11-11---------------|-------------------------|-------|
--------------------------/14----13\----|-------------------------|-------|
----------------------------------------|-------------------------|-------|
----------------------------------------|--0-----0-------0-----0--|-------|

  E  E  E  Q    E  E  E             E  E  E  Q    E  E  E
-------------------------|-------|-------------------------|-------|
-------------------------|-------|-------------------------|-------|
-------------------------|-------|-------------------------|-------|
--0-----0-------0-----0--|-------|--0-----0-------0-----0--|-------|

  E  E  E  Q    E  E  E
-------------------------||
-------------------------||
-------------------------||
--0-----0-------0-----0--||

Duration Legend
---------------

E - 8th
. - note dotted
----------------

x - dead note
(n) - ghost note
NH - natural harmonic
AH - artificial harmonic
TH - tapped harmonic
SH - semi harmonic
PH - pitch harmonic
h - hammer on
b - bend
br - bendRelease
pb - preBend
pbr - preBendRelease
brb - bendReleaseBend
S - shift slide
s - legato slide
/ -  slide into from below or out of upwards
\ -  slide into from above or out of downwards
~ - vibrato
W - wide vibrato
T - tapping
						
# Artist Title Tabdesignator