Quinn Peck

What I Could Have Said


							
#---------------------------------- NOTE---------------------------------#

#------------------------------------------------------------------------------##

Gtr I (E A D G) - 'Un
Gtr II (E A D G B E) - 'Un
Gtr III (E A D G B E) - 'Un
   Intro
    Q=144
   4/4

    W          +H.      Q     H.      +E  E   +W
||-----------|-------------|----------------|--------|
||o----------|----------6--|----------------|--------|
||o-4--------|-(4)---------|----------------|--------|
||-----------|-------------|-/5-------(5)-5-|-(5)----|

  W          +H.      Q     Q  E E E E E E   +W
|----------|-------------|-----------------|---------||
|----------|----------6--|-/7--6---6-7-6---|--------o||
|-4--------|-(4)---------|-----------------|--------o||
|----------|-------------|-------5-------7-|-(7)-----||

  W          +H.      Q     Q  E E E E E E   +Q   +Q.    E  E  E
|----------|-------------|-----------------|----------------------|
|----------|----------6--|-/7--6---6-7-6---|---------------11-13--|
|-4--------|-(4)---------|-----------------|------------11--------|
|----------|-------------|-------5-------7-|-(7)--(7)-------------|

 Verse
   Q   E  E  E  E  E  E    +E   E  E  E  E  E  E  E
|-----13-------13-------|---------13-------13----13-|
|-14-----14-13----13-11-|-(11)-11----11-13----13----|
|-----------------------|---------------------------|
|-----------------------|---------------------------|

   Q   E  E  E  E  E  E    +H      +E   E  E  E
|-----13-------13-------|------------------------|
|-14-----14-13----13-11-|-(11)----(11)----11-13--|
|-----------------------|--------------11--------|
|-----------------------|------------------------|

   Q   E  E  E  E  E  E    +E   E  E  E  E  E  E  E
|-----13-------13-------|---------13-------13----13-|
|-14-----14-13----13-11-|-(11)-11----11-13----13----|
|-----------------------|---------------------------|
|-----------------------|---------------------------|

   Q   E  E  E  E  E  E    +H.       Q
|-----13-------13-------|-----------14---|
|-14-----14-13----13-14-|-(14)-----------|
|-----------------------|----------------|
|-----------------------|----------------|

   Q   E  E  E  E  E  E    +E   E  E  E  E  E  E  E
|-----13-------13-------|---------13-------13----13-|
|-14-----14-13----13-11-|-(11)-11----11-13----13----|
|-----------------------|---------------------------|
|-----------------------|---------------------------|

   E  E  E  E  E  E  E  E    +H      +E   E  E  E
|----11-13-------11-13----|------------------------|
|-14-------14-13-------11-|-(11)----(11)----11-13--|
|-------------------------|--------------11--------|
|-------------------------|------------------------|

   Q   E  E  E  E  E  E    +E   E  E  E  E  E  E  E
|-----13-------13-------|---------13-------13----13-|
|-14-----14-13----13-11-|-(11)-11----11-13----13----|
|-----------------------|---------------------------|
|-----------------------|---------------------------|

   E  E  E  E  E  E  E  E    +H.       E  E
|----11-13-------11-13----|-----------16-14--|
|-14-------14-13-------14-|-(14)-------------|
|-------------------------|------------------|
|-------------------------|------------------|

   Chorus
     Q.    E  +H        +H.       E  E
||--13---------------|-----------13----|
||o-------14-(14)----|-(14)---------14-|
||o------------------|-----------------|
||-------------------|-----------------|

   Q.    Q.    Q     +H      +E   E  E  E
|-13--------------|-----------------------|
|-------14--------|-----------------13-14-|
|-------------16--|-(16)----(16)-14-------|
|-----------------|-----------------------|

   Q.    E  +H        +H.       E  E
|-13---------------|-----------13----|
|-------14-(14)----|-(14)---------14-|
|------------------|-----------------|
|------------------|-----------------|

   E  E  E  E  E  E  E  E   E  E  E  E  E  E  E  E
|-13-16-16-16-16-14-13-13-|---14-14-14-14-13---------||
|-------------------------|------------------14-11--o||
|-------------------------|-------------------------o||
|-------------------------|--------------------------||

   Q.    E  +H        +H.       E  E
|-13---------------|-----------13----|
|-------14-(14)----|-(14)---------14-|
|------------------|-----------------|
|------------------|-----------------|

   E  E  E  E  E  E  E  E   E  E  E  E  E.  E.  E
|-13-16-16-16-16-14-13-13-|---14-14-14-14--13-----|
|-------------------------|--------------------14-|
|-------------------------|-----------------------|
|-------------------------|-----------------------|

 Bridge
  W          +H.      Q     H.      +E  E   +W
|----------|-------------|----------------|--------|
|----------|----------6--|----------------|--------|
|-4--------|-(4)---------|----------------|--------|
|----------|-------------|-/5-------(5)-5-|-(5)----|

  W          +H.      Q     Q  E E E E E E   +Q   +Q.    E  E  E
|----------|-------------|-----------------|----------------------|
|----------|----------6--|-/7--6---6-7-6---|---------------11-13--|
|-4--------|-(4)---------|-----------------|------------11--------|
|----------|-------------|-------5-------7-|-(7)--(7)-------------|

 Verse
   Q   E  E  E  E  E  E    +E   E  E  E  E  E  E  E
|-----13-------13-------|---------13-------13----13-|
|-14-----14-13----13-11-|-(11)-11----11-13----13----|
|-----------------------|---------------------------|
|-----------------------|---------------------------|

   Q   E  E  E  E  E  E    +H      +E   E  E  E
|-----13-------13-------|------------------------|
|-14-----14-13----13-11-|-(11)----(11)----11-13--|
|-----------------------|--------------11--------|
|-----------------------|------------------------|

   Q   E  E  E  E  E  E    +E   E  E  E  E  E  E  E
|-----13-------13-------|---------13-------13----13-|
|-14-----14-13----13-11-|-(11)-11----11-13----13----|
|-----------------------|---------------------------|
|-----------------------|---------------------------|

   Q   E  E  E  E  E  E    +H.       Q
|-----13-------13-------|-----------14---|
|-14-----14-13----13-14-|-(14)-----------|
|-----------------------|----------------|
|-----------------------|----------------|

   Q   E  E  E  E  E  E    +E   E  E  E  E  E  E  E
|-----13-------13-------|---------13-------13----13-|
|-14-----14-13----13-11-|-(11)-11----11-13----13----|
|-----------------------|---------------------------|
|-----------------------|---------------------------|

   E  E  E  E  E  E  E  E    +H      +E   E  E  E
|----11-13-------11-13----|------------------------|
|-14-------14-13-------11-|-(11)----(11)----11-13--|
|-------------------------|--------------11--------|
|-------------------------|------------------------|

   Q   E  E  E  E  E  E    +E   E  E  E  E  E  E  E
|-----13-------13-------|---------13-------13----13-|
|-14-----14-13----13-11-|-(11)-11----11-13----13----|
|-----------------------|---------------------------|
|-----------------------|---------------------------|

   E  E  E  E  E  E  E  E    +H.       E  E
|----11-13-------11-13----|-----------16-14--|
|-14-------14-13-------14-|-(14)-------------|
|-------------------------|------------------|
|-------------------------|------------------|

   Chorus
     Q.    E  +H        +H.       E  E
||--13---------------|-----------13----|
||o-------14-(14)----|-(14)---------14-|
||o------------------|-----------------|
||-------------------|-----------------|

   Q.    Q.    Q     +H      +E   E  E  E
|-13--------------|-----------------------|
|-------14--------|-----------------13-14-|
|-------------16--|-(16)----(16)-14-------|
|-----------------|-----------------------|

   Q.    E  +H        +H.       E  E
|-13---------------|-----------13----|
|-------14-(14)----|-(14)---------14-|
|------------------|-----------------|
|------------------|-----------------|

   E  E  E  E  E  E  E  E   E  E  E  E  E  E  E  E
|-13-16-16-16-16-14-13-13-|---14-14-14-14-13---------||
|-------------------------|------------------14-11--o||
|-------------------------|-------------------------o||
|-------------------------|--------------------------||

   Q.    E  +H        +H.       E  E
|-13---------------|-----------13----|
|-------14-(14)----|-(14)---------14-|
|------------------|-----------------|
|------------------|-----------------|

   E  E  E  E  E  E  E  E   E  E  E  E  E.  E.  E
|-13-16-16-16-16-14-13-13-|---14-14-14-14--13-----|
|-------------------------|--------------------14-|
|-------------------------|-----------------------|
|-------------------------|-----------------------|

 Bridge
  W          +H.      Q     H.      +E  E   +W
|----------|-------------|----------------|--------|
|----------|----------6--|----------------|--------|
|-4--------|-(4)---------|----------------|--------|
|----------|-------------|-/5-------(5)-5-|-(5)----|

  W          +H.      Q     Q  E E E E E E   +Q   +Q.    E  E  E
|----------|-------------|-----------------|----------------------|
|----------|----------6--|-/7--6---6-7-6---|---------------11-13--|
|-4--------|-(4)---------|-----------------|------------11--------|
|----------|-------------|-------5-------7-|-(7)--(7)-------------|

 Guitar Solo
   Q   E  E  E  E  E  E    +E   E  E  E  E  E  E  E
|-----13-------13-------|---------13-------13----13-|
|-14-----14-13----13-11-|-(11)-11----11-13----13----|
|-----------------------|---------------------------|
|-----------------------|---------------------------|

   Q   E  E  E  E  E  E    +H      +E   E  E  E
|-----13-------13-------|------------------------|
|-14-----14-13----13-11-|-(11)----(11)----11-13--|
|-----------------------|--------------11--------|
|-----------------------|------------------------|

   Q   E  E  E  E  E  E    +E   E  E  E  E  E  E  E
|-----13-------13-------|---------13-------13----13-|
|-14-----14-13----13-11-|-(11)-11----11-13----13----|
|-----------------------|---------------------------|
|-----------------------|---------------------------|

   Q   E  E  E  E  E  E    +H.       Q
|-----13-------13-------|-----------14---|
|-14-----14-13----13-14-|-(14)-----------|
|-----------------------|----------------|
|-----------------------|----------------|

   Q   E  E  E  E  E  E    +E   E  E  E  E  E  E  E
|-----13-------13-------|---------13-------13----13-|
|-14-----14-13----13-11-|-(11)-11----11-13----13----|
|-----------------------|---------------------------|
|-----------------------|---------------------------|

   Q   E  E  E  E  E  E    +H      +E   E  E  E
|-----13-------13-------|------------------------|
|-14-----14-13----13-11-|-(11)----(11)----11-13--|
|-----------------------|--------------11--------|
|-----------------------|------------------------|

   Q   E  E  E  E  E  E    +E   E  E  E  E  E  E  E
|-----13-------13-------|---------13-------13----13-|
|-14-----14-13----13-11-|-(11)-11----11-13----13----|
|-----------------------|---------------------------|
|-----------------------|---------------------------|

|-----------------------|---------------------------|
|-----------------------|---------------------------|
|-----------------------|---------------------------|
|-----------------------|---------------------------|
|-----------------------|---------------------------|
|-----------------------|---------------------------|

|-----------------------|---------------------------|
|-----------------------|---------------------------|
|-----------------------|---------------------------|
|-----------------------|---------------------------|
|-----------------------|---------------------------|
|-----------------------|---------------------------|

   E  E  E  E  E  E  E  E    +H.         E  E
|----11-13-------11-13----|-------------16-14--|
|-14-------14-13-------14-|-(14)---------------|
|-------------------------|--------------------|
|-------------------------|--------------------|

|  W                          H     E E  E  E
|-------------------------|--------------------|
|-------------------------|--------------------|
|-------------------------|--------------6--8--|
|-------------------------|-----------6--------|
|-------------------------|--------------------|
|-------------------------|--------------------|

|  W                          H     E E  E  E
|-------------------------|--------------------|
|-------------------------|--------------------|
|-------------------------|--------------6--8--|
|-------------------------|-----------6--------|
|-------------------------|--------------------|
|-------------------------|--------------------|

 Out-Chorus
   Q.     E  +H          +H.       E   E
|-13------------------|-----------13-------|
|--------14-(14)------|-(14)----------14---|
|---------------------|--------------------|
|---------------------|--------------------|

|  Q   E  E  +E  E Q     +H.      +E   S S
|---------------------|--------------------|
|---------------------|--------------------|
|--9---8--9--(9)-8-9--|--(9)------(9)--6-8-|
|---------------------|--------------------|
|---------------------|--------------------|
|---------------------|--------------------|

|  Q   E  E  +E  E Q     +H.      +E   S S
|---------------------|--------------------|
|---------------------|--------------------|
|--9---8--9--(9)-8-9--|--(9)------(9)--6-8-|
|---------------------|--------------------|
|---------------------|--------------------|
|---------------------|--------------------|

   Q.     Q.        Q     +H      +E   E  E  E
|-13-------------------|-----------------------|
|--------14------------|-----------------13-14-|
|------------------16--|-(16)----(16)-14-------|
|----------------------|-----------------------|

|  Q   E  E  +E  E  Q     +W
|----------------------|-----------------------|
|----------------------|-----------------------|
|--9---8--9--(9)-8--4--|--(4)------------------|
|----------------------|-----------------------|
|----------------------|-----------------------|
|----------------------|-----------------------|

|  Q   E  E  +E  E  Q     +W
|----------------------|-----------------------|
|----------------------|-----------------------|
|--9---8--9--(9)-8--4--|--(4)------------------|
|----------------------|-----------------------|
|----------------------|-----------------------|
|----------------------|-----------------------|

   Q.     E  +H          +H.       E   E
|-13------------------|-----------13-------|
|--------14-(14)------|-(14)----------14---|
|---------------------|--------------------|
|---------------------|--------------------|

|  Q   E  E  +E  E Q     +H.      +E   S S
|---------------------|--------------------|
|---------------------|--------------------|
|--9---8--9--(9)-8-9--|--(9)------(9)--9-8-|
|---------------------|--------------------|
|---------------------|--------------------|
|---------------------|--------------------|

|  Q   E  E  +E  E Q     +H.      +E   S S
|---------------------|--------------------|
|---------------------|--------------------|
|--9---8--9--(9)-8-9--|--(9)------(9)--9-8-|
|---------------------|--------------------|
|---------------------|--------------------|
|---------------------|--------------------|

   E  E  E  E  E   E  E  E     E   E  E  E   E   E  E  E
|-13-16-16-16-16--14-13-13-|------14-14-14--14--13-------|
|--------------------------|-----------------------14-11-|
|--------------------------|-----------------------------|
|--------------------------|-----------------------------|

|  Q     E  E +E   E  Q       +H            +E   E  E  E
|--------------------------|-----------------------------|
|--------------------------|-----------------------------|
|--9-----8--9-(9)--8--4----|--(4)-----------(4)-----6--8-|
|--------------------------|---------------------6-------|
|--------------------------|-----------------------------|
|--------------------------|-----------------------------|

|  H          +E   E  E  E    +H            +E   E  E  E
|--------------------------|-----------------------------|
|-----------------------12-|-(12)----------(12)----------|
|--9----------(9)--8-------|-----------------------------|
|---------------------9----|---------------------------4-|
|--------------------------|---------------------6--7----|
|--------------------------|-----------------------------|

   Q.      E  +H            +H.        E   E
|-13---------------------|------------13--------|
|---------14-(14)--------|-(14)-----------14----|
|------------------------|----------------------|
|------------------------|----------------------|

|  Q    E  E  +E   E  Q     +H.       +E   S  S
|-12---11-12-(12)-11-12--|-(12)------(12)--9-11-|
|------------------------|----------------------|
|--9----8--9--(9)--8--9--|--(9)-------(9)--6--8-|
|------------------------|----------------------|
|------------------------|----------------------|
|------------------------|----------------------|

|  Q    E  E  +E   E  Q     +H.       +E   S  S
|------------------------|----------------------|
|------------------------|----------------------|
|------------------------|----------------------|
|--6----4--6--(6)--4--6--|--(6)-------(6)--2--4-|
|------------------------|----------------------|
|------------------------|----------------------|

   Q.      Q.          Q     +H      +E   E  E  E
|-13----------------------|-----------------------|
|---------14--------------|-----------------13-14-|
|---------------------16--|-(16)----(16)-14-------|
|-------------------------|-----------------------|

|  Q    E  E   +E   E  Q     +W
|-12---11-12--(12)-11--7--|--(7)------------------|
|-------------------------|-----------------------|
|--9----8--9---(9)--8--4--|--(4)------------------|
|-------------------------|-----------------------|
|-------------------------|-----------------------|
|-------------------------|-----------------------|

|  Q    E  E   +E   E  Q     +W
|-------------------------|-----------------------|
|-------------------------|-----------------------|
|-------------------------|-----------------------|
|--6----4--6---(6)--4--1--|--(1)------------------|
|-------------------------|-----------------------|
|-------------------------|-----------------------|

   Q.      E  +H            +H.        E   E
|-13---------------------|------------13--------|
|---------14-(14)--------|-(14)-----------14----|
|------------------------|----------------------|
|------------------------|----------------------|

|  Q    E  E  +E   E  Q     +H.       +E   S  S
|-12---11-12-(12)-11-12--|-(12)------(12)-12-11-|
|------------------------|----------------------|
|--9----8--9--(9)--8--9--|--(9)-------(9)--9--8-|
|------------------------|----------------------|
|------------------------|----------------------|
|------------------------|----------------------|

|  Q    E  E  +E   E  Q     +H.       +E   S  S
|------------------------|----------------------|
|------------------------|----------------------|
|------------------------|----------------------|
|--6----4--6--(6)--4--6--|--(6)-------(6)--6--4-|
|------------------------|----------------------|
|------------------------|----------------------|

   E  E  E  E   E   E  E  E     E   E  E  E   E   E  E  E
|-13-16-16-16--16--14-13-13-|------14-14-14--14--13-------|
|---------------------------|-----------------------14-11-|
|---------------------------|-----------------------------|
|---------------------------|-----------------------------|

|  H           +E   E  E  E    +H            +E   E  E  E
|-12----------(12)-11----19-|-(19)----------(19)----21-23-|
|---------------------12-12-|-(12)----------(12)-21-------|
|--9-----------(9)--8-------|-----------------------18-20-|
|----------------------9----|--------------------18-------|
|---------------------------|-----------------------------|
|---------------------------|-----------------------------|

|  Q     E  E  +E   E  Q       +H            +E   E  E  E
|---------------------------|-----------------------------|
|---------------------------|---------------------------7-|
|---------------------------|---------------------8--9----|
|--6-----4--6--(6)--4--1----|--(1)-----------(1)--------4-|
|---------------------------|---------------------6--7----|
|---------------------------|-----------------------------|

   Q.      E  +H            +H.        E   E
|-13---------------------|------------13--------|
|---------14-(14)--------|-(14)-----------14----|
|------------------------|----------------------|
|------------------------|----------------------|

|  Q    E  E  +E   E  Q     +H.       +E   S  S
|-24---23-24-(24)-23-24--|-(24)------(24)-21-23-|
|------------------------|----------------------|
|-21---20-21-(21)-20-21--|-(21)------(21)-18-20-|
|------------------------|----------------------|
|------------------------|----------------------|
|------------------------|----------------------|

|  Q    E  E  +E   E  Q     +H.       +E   S  S
|------------------------|----------------------|
|--9----7--9--(9)--7--9--|--(9)-------(9)--5--7-|
|------------------------|----------------------|
|--6----4--6--(6)--4--6--|--(6)-------(6)--2--4-|
|------------------------|----------------------|
|------------------------|----------------------|

   Q.      Q.          Q     +H      +E   E  E  E
|-13----------------------|-----------------------|
|---------14--------------|-----------------13-14-|
|---------------------16--|-(16)----(16)-14-------|
|-------------------------|-----------------------|

|  Q    E  E   +E   E  Q     +W
|-24---23-24--(24)-23-19--|-(19)------------------|
|-------------------------|-----------------------|
|-21---20-21--(21)-20-16--|-(16)------------------|
|-------------------------|-----------------------|
|-------------------------|-----------------------|
|-------------------------|-----------------------|

|  Q    E  E   +E   E  Q     +W
|-------------------------|-----------------------|
|--9----7--9---(9)--7--4--|--(4)------------------|
|-------------------------|-----------------------|
|--6----4--6---(6)--4--1--|--(1)------------------|
|-------------------------|-----------------------|
|-------------------------|-----------------------|

   Q.      E  +H            +H.        E   E
|-13---------------------|------------13--------|
|---------14-(14)--------|-(14)-----------14----|
|------------------------|----------------------|
|------------------------|----------------------|

|  Q    E  E  +E   E  Q     +H.       +E   S  S
|-24---23-24-(24)-23-24--|-(24)------(24)-24-23-|
|------------------------|----------------------|
|-21---20-21-(21)-20-21--|-(21)------(21)-21-20-|
|------------------------|----------------------|
|------------------------|----------------------|
|------------------------|----------------------|

|  Q    E  E  +E   E  Q     +H.       +E   S  S
|------------------------|----------------------|
|--9----7--9--(9)--7--9--|--(9)-------(9)--9--7-|
|------------------------|----------------------|
|--6----4--6--(6)--4--6--|--(6)-------(6)--6--4-|
|------------------------|----------------------|
|------------------------|----------------------|

   E  E  E  E   E   E  E  E     E   E  E  E   E   E  E  E
|-13-16-16-16--16--14-13-13-|------14-14-14--14--13-------|
|---------------------------|-----------------------14-11-|
|---------------------------|-----------------------------|
|---------------------------|-----------------------------|

|  Q     E  E  +E   E  Q       +H            +E   E  E  E
|-24----23-24-(24)-23-19----|-(19)----------(19)----21-23-|
|---------------------------|--------------------21-------|
|-21----20-21-(21)-20-16----|-(16)----------(16)----18-20-|
|---------------------------|--------------------18-------|
|---------------------------|-----------------------------|
|---------------------------|-----------------------------|

|  H           +E   E  E  E    +H            +E   E  E  E
|------------------------12-|-(12)----------(12)-------14-|
|--9-----------(9)--7-------|--------------------16-17----|
|----------------------9--9-|--(9)-----------(9)-------11-|
|--6-----------(6)--4-------|--------------------13-14----|
|----------------------7----|-----------------------------|
|---------------------------|-----------------------------|

   Q.      E  +H            +H.        E   E
|-13---------------------|------------13--------|
|---------14-(14)--------|-(14)-----------14----|
|------------------------|----------------------|
|------------------------|----------------------|

|  Q    E  E  +E   E  Q     +H.       +E   S  S
|-24---23-24-(24)-23-24--|-(24)------(24)-21-23-|
|------------------------|----------------------|
|-21---20-21-(21)-20-21--|-(21)------(21)-18-20-|
|------------------------|----------------------|
|------------------------|----------------------|
|------------------------|----------------------|

|  Q    E  E  +E   E  Q     +H.       +E   S  S
|-16---14-16-(16)-14-16--|-(16)------(16)-12-14-|
|------------------------|----------------------|
|-13---11-13-(13)-11-13--|-(13)------(13)--9-11-|
|------------------------|----------------------|
|------------------------|----------------------|
|------------------------|----------------------|

   Q.      Q.          Q     +H      +E   E  E  E
|-13----------------------|-----------------------|
|---------14--------------|-----------------13-14-|
|---------------------16--|-(16)----(16)-14-------|
|-------------------------|-----------------------|

|  Q    E  E   +E   E  Q     +W
|-24---23-24--(24)-23-19--|-(19)------------------|
|-------------------------|-----------------------|
|-21---20-21--(21)-20-16--|-(16)------------------|
|-------------------------|-----------------------|
|-------------------------|-----------------------|
|-------------------------|-----------------------|

|  Q    E  E   +E   E  Q     +W
|-16---14-16--(16)-14-11--|-(11)------------------|
|-------------------------|-----------------------|
|-13---11-13--(13)-11--8--|--(8)------------------|
|-------------------------|-----------------------|
|-------------------------|-----------------------|
|-------------------------|-----------------------|

   Q.      E  +H            +H.        E   E
|-13---------------------|------------13--------|
|---------14-(14)--------|-(14)-----------14----|
|------------------------|----------------------|
|------------------------|----------------------|

|  Q    E  E  +E   E  Q     +H.       +E   S  S
|-24---23-24-(24)-23-24--|-(24)------(24)-24-23-|
|------------------------|----------------------|
|-21---20-21-(21)-20-21--|-(21)------(21)-21-20-|
|------------------------|----------------------|
|------------------------|----------------------|
|------------------------|----------------------|

|  Q    E  E  +E   E  Q     +H.       +E   S  S
|-16---14-16-(16)-14-16--|-(16)------(16)-16-14-|
|------------------------|----------------------|
|-13---11-13-(13)-11-13--|-(13)------(13)-13-11-|
|------------------------|----------------------|
|------------------------|----------------------|
|------------------------|----------------------|

   E  E  E  E   E   E  E  E     E   E  E  E  E  E  E  E
|-13-16-16-16--16--14-13-13-|------14-14-14-14-13-------|
|---------------------------|---------------------14-11-|
|---------------------------|---------------------------|
|---------------------------|---------------------------|

|  Q     E  E  +E   E  Q       +H            H
|-24----23-24-(24)-23-19----|-(19)----------23----------|
|---------------------------|---------------------------|
|-21----20-21-(21)-20-16----|-(16)----------20----------|
|---------------------------|---------------------------|
|---------------------------|---------------------------|
|---------------------------|---------------------------|

|  Q     E  E  +E   E  Q       +H            H
|-16----14-16-(16)-14-11----|-(11)----------14----------|
|---------------------------|---------------------------|
|-13----11-13-(13)-11--8----|--(8)----------11----------|
|---------------------------|---------------------------|
|---------------------------|---------------------------|
|---------------------------|---------------------------|

|-----------|---------*|
|-14--------|-(14)----*|
|-----------|---------*|
|-----------|---------*|

|-24--------|-(24)----*|
|-----------|---------*|
|-21--------|-(21)----*|
|-----------|---------*|
|-----------|---------*|
|-----------|---------*|

|-16--------|-(16)----*|
|-----------|---------*|
|-13--------|-(13)----*|
|-----------|---------*|
|-----------|---------*|
|-----------|---------*|

Duration Legend
---------------

W - whole; H - half; Q - quarter; E - 8th; S - 16th; T - 32nd; X - 64th; a - acciaccatura
+ - note tied to previous; . - note dotted; .. - note double dotted
Uncapitalized letters represent notes that are staccato (1/2 duration)
duration for.  Duration letters with no t number below them represent rests.  Multi-
bar rests are notated in the form Wxn, where n is the number of bars to rest for.  Low
----------------

 h   - hammer-on
 b   - bend
 pb  - pre-bend
 r   - bend release (if no number after the r, then release immediately)
 s   - legato slide
 S   - shift slide
  - natural harmonic
n  - artificial harmonic
n(n) - tapped harmonic
 ~   - vibrato
 T   - tap
 PM  - palm muting
\n/  - tremolo bar dip; n = amount to dip
 =   - hold bend; also acts as connecting device for hammers/pulls
 x   - on rhythm slash represents muted slash
Misc Legend
-----------

||o - repeat start

 &  - Coda
Tempo markers -  = BPM(8/16=s8/s16), where s8 = swing 8ths, s16 = swing 16ths
***************************************************************************************

***************************************************************************************
						
# Artist Title Tabdesignator