Persuader

Judas Immortal


							
-------------------------------------------------------------------------------

-------------------------------------------------------------------------------

Tuning: A#-D#-G#-C#-F#-B (Standard 6 String Bass Tuning tuned down 1/2 step)
Tempo: 220bpm
Time Sig: 4/4
B ||-------------------|-------------------|-------------------|
F#||-------------------|-------------------|-------------------|
C#||-------------------|-------------------|-------------------|
G#||-------------------|-------------------|-------------------|
D#||--7----------------|--L----------------|-------------------|
A#||-------------------|-------------------|--7----------------|

  W                   W                   W                   W
-------------------|-------------------|-------------------|-------------------|
-------------------|-------------------|-------------------|-------------------|
-------------------|-------------------|-------------------|-------------------|
-------------------|-------------------|-------------------|-------------------|
-------------------|-------------------|-------------------|--3----------------|
--L----------------|--3----------------|--L----------------|-------------------|

  W                   W                   W                   W
-------------------|-------------------|-------------------|-------------------|
-------------------|-------------------|-------------------|-------------------|
-------------------|-------------------|-------------------|-------------------|
-------------------|-------------------|-------------------|-------------------|
--5----------------|--7----------------|--L----------------|-------------------|
-------------------|-------------------|-------------------|--7----------------|

  W                   W                   W                   W
-------------------|-------------------|-------------------|-------------------|
-------------------|-------------------|-------------------|-------------------|
-------------------|-------------------|-------------------|-------------------|
-------------------|-------------------|-------------------|-------------------|
-------------------|-------------------|-------------------|--3----------------|
--L----------------|--3----------------|--L----------------|-------------------|

-------------------|-------------------|-------------------|-------|-------|
-------------------|-------------------|-------------------|-------|-------|
-------------------|-------------------|-------------------|-------|-------|
-------------------|-------------------|-------------------|-------|-------|
--5----------------|--7----------------|--L----------------|-------|-------|
-------------------|-------------------|-------------------|-------|-------|

  W                   W                   W                   W
-------------------|-------------------|-------------------|-------------------|
-------------------|-------------------|-------------------|-------------------|
-------------------|-------------------|-------------------|-------------------|
-------------------|-------------------|-------------------|-------------------|
--7----------------|-------------------|-------------------|-------------------|
-------------------|--1----------------|--5----------------|--8----------------|

  W                   W                   W                   W
-------------------|-------------------|-------------------|-------------------|
-------------------|-------------------|-------------------|-------------------|
-------------------|-------------------|-------------------|-------------------|
-------------------|-------------------|-------------------|-------------------|
--7----------------|-------------------|-------------------|-------------------|
-------------------|--0----------------|--3----------------|--7----------------|

  E  E  E  E  E  E  E  E     E  E  E  E  E  E  E  E
--------------------------|--------------------------|
--------------------------|--------------------------|
--------------------------|--------------------------|
--------------------------|--------------------------|
--7--7--7--7--7--7--7--7--|--7--7--7--7--7--7--7--7--|
--------------------------|--------------------------|

  E  E  E  E  E  E  E  E     E  E  E  E  E  E  E  E
--------------------------|--------------------------|
--------------------------|--------------------------|
--------------------------|--------------------------|
--------------------------|--------------------------|
--------------------------|--------------------------|
--5--5--5--5--5--5--5--5--|--8--8--8--8--8--8--8--8--|

  E  E  E  E  E  E  E  E     E  E  E  E  E  E  E  E
--------------------------|--------------------------|
--------------------------|--------------------------|
--------------------------|--------------------------|
--------------------------|--------------------------|
--7--7--7--7--7--7--7--7--|--7--7--7--7--7--7--7--7--|
--------------------------|--------------------------|

  E  E  E  E  E  E  E  E     E  E  E  E  E  E  E  E
--------------------------|--------------------------|
--------------------------|--------------------------|
--------------------------|--------------------------|
--------------------------|--------------------------|
--------------------------|--------------------------|
--3--3--3--3--3--3--3--3--|--7--7--7--7--7--7--7--7--|

  E  E  E  E  E  E  E  E     E  E  E  E  E  E  E  E
--------------------------|--------------------------|
--------------------------|--------------------------|
--------------------------|--------------------------|
--------------------------|--------------------------|
--7--7--7--7--7--7--7--7--|--7--7--7--7--7--7--7--7--|
--------------------------|--------------------------|

  E  E  E  E  E  E  E  E     E  E  E  E  E  E  E  E
--------------------------|--------------------------|
--------------------------|--------------------------|
--------------------------|--------------------------|
--------------------------|--------------------------|
--------------------------|--------------------------|
--5--5--5--5--5--5--5--5--|--8--8--8--8--8--8--8--8--|

  E  E  E  E  E  E  E  E     E  E  E  E  E  E  E  E
--------------------------|--------------------------|
--------------------------|--------------------------|
--------------------------|--------------------------|
--------------------------|--------------------------|
--7--7--7--7--7--7--7--7--|--7--7--7--7--7--7--7--7--|
--------------------------|--------------------------|

  E  E  E  E  E  E  E  E     E  E  E  E  E  E  E  E     W
--------------------------|--------------------------|-------------------|
--------------------------|--------------------------|-------------------|
--------------------------|--------------------------|-------------------|
--------------------------|--------------------------|-------------------|
--------------------------|--------------------------|--7----------------|
--3--3--3--3--3--3--3--3--|--7--7--7--7--7--7--7--7--|-------------------|

  W                   E  E  E   Q    Q    E     E  E  E  E  E  E  E  E
-------------------|-------------------------|--------------------------|
-------------------|-------------------------|--------------------------|
-------------------|-------------------------|--------------------------|
-------------------|-----------10----7----9--|--------------------------|
--L----------------|--7--7--7----------------|--7--7--7--7--7--7--7--7--|
-------------------|-------------------------|--------------------------|

  E  E  E   Q    Q    E     E  E  Q    E  E  Q       E  E  E   Q    Q    E
-------------------------|------------------------|-------------------------|
-------------------------|------------------------|-------------------------|
-------------------------|------------------------|-------------------------|
-----------10----7-------|------------------------|-----------10----7----9--|
--7--7--7----------------|------------------------|--7--7--7----------------|
----------------------8--|--8--8--8----8--8--8----|-------------------------|

  E  E  E  E  E  E  E  E      Q.      Q.      Q       H         H
--------------------------|------------------------|---------------------|
--------------------------|------------------------|---------------------|
--------------------------|------------------------|---------------------|
--------------------------|------------------------|---------------------|
--7--7--7--7--7--7--7--7--|--10------12------10----|--9------------------|
--------------------------|------------------------|-----------10--------|

  E  E  E   Q    Q    E     E  E  E  E  E  E  E  E     E  E  E   Q    Q    E
-------------------------|--------------------------|-------------------------|
-------------------------|--------------------------|-------------------------|
-------------------------|--------------------------|-------------------------|
-----------10----7----9--|--------------------------|-----------10----7-------|
--7--7--7----------------|--7--7--7--7--7--7--7--7--|--7--7--7----------------|
-------------------------|--------------------------|----------------------8--|

  E  E  Q    E  E  Q       E  E  E   Q    Q    E     E  E  E  E  E  E  E  E
------------------------|-------------------------|--------------------------|
------------------------|-------------------------|--------------------------|
------------------------|-------------------------|--------------------------|
------------------------|-----------10----7----9--|--------------------------|
------------------------|--7--7--7----------------|--7--7--7--7--7--7--7--7--|
--8--8--8----8--8--8----|-------------------------|--------------------------|

   Q.      Q.      Q        H         H           E  E  E  Q    Q    E
------------------------|----------------------|------------------------|
------------------------|----------------------|------------------------|
------------------------|----------------------|------------------------|
------------------------|----------------------|------------------------|
------------------------|----------------------|------------------------|
--10------10------10----|--12--------10--------|--1--3--3--4----1----3--|

  E  E  E  E  E  E  E  E     E  E  E  Q    Q    E     W
--------------------------|------------------------|-------------------|
--------------------------|------------------------|-------------------|
--------------------------|------------------------|-------------------|
--------------------------|------------------------|-------------------|
--------------------------|------------------------|-------------------|
--L--3--3--3--3--3--3--3--|--1--3--3--4----0----0--|--0----------------|

  E  E  E  Q    Q    E     E  E  E  E  E  E  E  E     H        E  E  E  E
------------------------|--------------------------|-----------------------|
------------------------|--------------------------|-----------------------|
------------------------|--------------------------|-----------------------|
------------------------|--------------------------|-----------------------|
------------------------|--------------------------|-----------------------|
--1--3--3--4----1----3--|--L--3--3--3--3--3--3--3--|--5--------5--5--5--5--|

  W                   W                   W                   W
-------------------|-------------------|-------------------|-------------------|
-------------------|-------------------|-------------------|-------------------|
-------------------|-------------------|-------------------|-------------------|
-------------------|-------------------|-------------------|-------------------|
-------------------|--7----------------|-------------------|-------------------|
--8----------------|-------------------|--1----------------|--5----------------|

  W                   W                   W                   W
-------------------|-------------------|-------------------|-------------------|
-------------------|-------------------|-------------------|-------------------|
-------------------|-------------------|-------------------|-------------------|
-------------------|-------------------|-------------------|-------------------|
-------------------|--7----------------|-------------------|-------------------|
--8----------------|-------------------|--0----------------|--3----------------|

  W                   E  E  E  E  E  E  E  E     E  E  E  E  E  E  E  E
-------------------|--------------------------|--------------------------|
-------------------|--------------------------|--------------------------|
-------------------|--------------------------|--------------------------|
-------------------|--------------------------|--------------------------|
-------------------|--7--7--7--7--7--7--7--7--|--7--7--7--7--7--7--7--7--|
--7----------------|--------------------------|--------------------------|

  E  E  E  E  E  E  E  E     E  E  E  E  E  E  E  E
--------------------------|--------------------------|
--------------------------|--------------------------|
--------------------------|--------------------------|
--------------------------|--------------------------|
--------------------------|--------------------------|
--5--5--5--5--5--5--5--5--|--8--8--8--8--8--8--8--8--|

  E  E  E  E  E  E  E  E     E  E  E  E  E  E  E  E
--------------------------|--------------------------|
--------------------------|--------------------------|
--------------------------|--------------------------|
--------------------------|--------------------------|
--7--7--7--7--7--7--7--7--|--7--7--7--7--7--7--7--7--|
--------------------------|--------------------------|

  E  E  E  E  E  E  E  E     E  E  E  E  E  E  E  E     W
--------------------------|--------------------------|-------------------|
--------------------------|--------------------------|-------------------|
--------------------------|--------------------------|-------------------|
--------------------------|--------------------------|-------------------|
--------------------------|--------------------------|--7----------------|
--3--3--3--3--3--3--3--3--|--7--7--7--7--7--7--7--7--|-------------------|

  W                   E  E  E   Q    Q    E     E  E  E  E  E  E  E  E
-------------------|-------------------------|--------------------------|
-------------------|-------------------------|--------------------------|
-------------------|-------------------------|--------------------------|
-------------------|-----------10----7----9--|--------------------------|
--L----------------|--7--7--7----------------|--7--7--7--7--7--7--7--7--|
-------------------|-------------------------|--------------------------|

  E  E  E   Q    Q    E     E  E  Q    E  E  Q       E  E  E   Q    Q    E
-------------------------|------------------------|-------------------------|
-------------------------|------------------------|-------------------------|
-------------------------|------------------------|-------------------------|
-----------10----7-------|------------------------|-----------10----7----9--|
--7--7--7----------------|------------------------|--7--7--7----------------|
----------------------8--|--8--8--8----8--8--8----|-------------------------|

  E  E  E  E  E  E  E  E      Q.      Q.      Q       H         H
--------------------------|------------------------|---------------------|
--------------------------|------------------------|---------------------|
--------------------------|------------------------|---------------------|
--------------------------|------------------------|---------------------|
--7--7--7--7--7--7--7--7--|--10------12------10----|--9------------------|
--------------------------|------------------------|-----------10--------|

  E  E  E   Q    Q    E     E  E  E  E  E  E  E  E     E  E  E   Q    Q    E
-------------------------|--------------------------|-------------------------|
-------------------------|--------------------------|-------------------------|
-------------------------|--------------------------|-------------------------|
-----------10----7----9--|--------------------------|-----------10----7-------|
--7--7--7----------------|--7--7--7--7--7--7--7--7--|--7--7--7----------------|
-------------------------|--------------------------|----------------------8--|

  E  E  Q    E  E  Q       E  E  E   Q    Q    E     E  E  E  E  E  E  E  E
------------------------|-------------------------|--------------------------|
------------------------|-------------------------|--------------------------|
------------------------|-------------------------|--------------------------|
------------------------|-----------10----7----9--|--------------------------|
------------------------|--7--7--7----------------|--7--7--7--7--7--7--7--7--|
--8--8--8----8--8--8----|-------------------------|--------------------------|

   Q.      Q.      Q        H         H           E  E  E  Q    Q    E
------------------------|----------------------|------------------------|
------------------------|----------------------|------------------------|
------------------------|----------------------|------------------------|
------------------------|----------------------|------------------------|
------------------------|----------------------|------------------------|
--10------10------10----|--12--------10--------|--1--3--3--4----1----3--|

  E  E  E  E  E  E  E  E     E  E  E  Q    Q.        W
--------------------------|-----------------------|-------------------|
--------------------------|-----------------------|-------------------|
--------------------------|-----------------------|-------------------|
--------------------------|-----------------------|-------------------|
--------------------------|-----------------------|-------------------|
--L--3--3--3--3--3--3--3--|--1--3--3--4----1------|--0----------------|

  H        E  E  E  E     E  E  E  E  E  E  Q
-----------------------|-------------------------|
-----------------------|-------------------------|
-----------------------|-------------------------|
-----------------------|-------------------------|
-----------------------|-------------------------|
--8--------8--8--8--8--|--8--8--8--8--8--8--8----|

   E   E   E   E  E  E   E   E      E   E  E  E   Q.      E
--------------------------------|----------------------------|
--------------------------------|----------------------------|
--------------------------------|----------------------------|
--------------------------------|----------------------------|
--------------------------------|----------------------------|
--10--10--10--10--------10--10--|--10--10--------10\---------|

  Q    Q    E  E  E  E     Q    H.              E  E  Q    E  E  Q
------------------------|--------------------|------------------------|
------------------------|--------------------|------------------------|
------------------------|--------------------|------------------------|
------------------------|--------------------|------------------------|
------------------------|--------------------|------------------------|
--0----0----0--0--0--0--|--3----3------------|--7--7--7----7--7--7----|

  E  E  Q    E  E  Q       Q    Q    E  E  E  E     Q    H.
------------------------|------------------------|--------------------|
------------------------|------------------------|--------------------|
------------------------|------------------------|--------------------|
------------------------|------------------------|--------------------|
------------------------|------------------------|--------------------|
--7--7--7----7--7--7----|--5----5----5--5--5--5--|--8----8------------|

   E   E   Q     E   E   Q        E   E   Q     E   E   Q
------------------------------|------------------------------|
------------------------------|------------------------------|
------------------------------|------------------------------|
------------------------------|------------------------------|
------------------------------|------------------------------|
--12--12--12----12--12--12----|--12--12--12----12--12--12----|

  E  E  E  E  E  E  E  E     E  E  E  E  H           E  E  Q    E  E  Q
--------------------------|-----------------------|------------------------|
--------------------------|-----------------------|------------------------|
--------------------------|-----------------------|------------------------|
--------------------------|-----------------------|------------------------|
--------------------------|-----------------------|------------------------|
--5--5--5--5--5--5--5--5--|--5--5--5--5--8--------|--8--8--8----8--8--8----|

  E  E  Q    E  E  Q       Q    Q    E  E  E  E     Q    Q    E  E  E  E
------------------------|------------------------|------------------------|
------------------------|------------------------|------------------------|
------------------------|------------------------|------------------------|
------------------------|------------------------|------------------------|
------------------------|------------------------|------------------------|
--8--8--8----8--8--8----|--3----3----3--3--3--3--|--3----3----3--3--3--3--|

  Q    Q    E  E  E  E     H        H           Q    Q    E  E  E  E
------------------------|--------------------|------------------------|
------------------------|--------------------|------------------------|
------------------------|--------------------|------------------------|
------------------------|--------------------|------------------------|
------------------------|--------------------|------------------------|
--3----3----3--3--3--3--|--8--------0--------|--5----5----5--5--5--5--|

  Q    Q    E  E  E  E     Q    Q    E  E  E  E     Q    Q    E  E  E  E
------------------------|------------------------|------------------------|
------------------------|------------------------|------------------------|
------------------------|------------------------|------------------------|
------------------------|------------------------|------------------------|
------------------------|------------------------|------------------------|
--5----5----5--5--5--5--|--8----8----8--8--8--8--|--8----8----8--8--8--8--|

   Q     Q     E   E   E   E      Q     Q     E   E   E   E
------------------------------|------------------------------|
------------------------------|------------------------------|
------------------------------|------------------------------|
------------------------------|------------------------------|
------------------------------|------------------------------|
--12----12----12--12--12--12--|--12----12----12--12--12--12--|

--------------------|--------------------|-------------------|
--------------------|--------------------|-------------------|
--------------------|--------------------|-------------------|
--------------------|--------------------|-------------------|
--------------------|--------------------|-------------------|
--13----------------|--15----------------|--1----------------|

  W                   W                   W                   W
-------------------|-------------------|-------------------|-------------------|
-------------------|-------------------|-------------------|-------------------|
-------------------|-------------------|-------------------|-------------------|
-------------------|-------------------|-------------------|-------------------|
-------------------|-------------------|-------------------|-------------------|
--L----------------|--4----------------|--6----------------|--1----------------|

  W                   E  E  Q    E  E  Q       E  E  Q    E  E  Q
-------------------|------------------------|------------------------|
-------------------|------------------------|------------------------|
-------------------|------------------------|------------------------|
-------------------|------------------------|------------------------|
-------------------|------------------------|------------------------|
--L----------------|--0--0--0----0--0--0----|--0--0--0----0--0--0----|

  |--3--|       |--3--|          |--3--|       |--3--|

  E  E  E  Q    E  E  E  Q       E  E  E  Q    E  E  E  Q
------------------------------|------------------------------|
------------------------------|------------------------------|
------------------------------|------------------------------|
------------------------------|------------------------------|
------------------------------|------------------------------|
--1--1--1--1----1--1--1--1----|--1--1--1--1----1--1--1--1----|

  |--3--|       |--3--|          |--3--|       |--3--|

  E  E  E  Q    E  E  E  Q       E  E  E  Q    E  E  E  Q
------------------------------|------------------------------|
------------------------------|------------------------------|
------------------------------|------------------------------|
------------------------------|------------------------------|
------------------------------|------------------------------|
--4--4--4--4----4--4--4--4----|--6--6--6--6----6--6--6--6----|

  |--3--|       |--3--|          |--3--|       |--3--|

  E  E  E  Q    E  E  E  Q       E  E  E  Q    E  E  E  Q
------------------------------|------------------------------|
------------------------------|------------------------------|
------------------------------|------------------------------|
------------------------------|------------------------------|
------------------------------|------------------------------|
--1--1--1--1----1--1--1--1----|--1--1--1--1----1--1--1--1----|

                       |--3--|

  H        H           E  E  E  Q    Q    Q       E  E  E  E  E  E  E  E
--------------------|--------------------------|--------------------------|
--------------------|--------------------------|--------------------------|
--------------------|--------------------------|--------------------------|
--------------------|--------------------------|--------------------------|
--------------------|--------------------------|--7--7--7--7--7--7--7--7--|
--0--------0--------|--1--1--1--1----1----0----|--------------------------|

  E  E  E  E  E  E  E  E     E  E  E  E  E  E  E  E
--------------------------|--------------------------|
--------------------------|--------------------------|
--------------------------|--------------------------|
--------------------------|--------------------------|
--7--7--7--7--7--7--7--7--|--7--7--7--7--7--7--7--7--|
--------------------------|--------------------------|

  E  E   E   E   E   E   E   E     E  E  E  E  E  E  E  E
--------------------------------|--------------------------|
--------------------------------|--------------------------|
--------------------------------|--------------------------|
--------------------------------|--------------------------|
--7--7--12--12--10--10--12--12--|--7--7--7--7--7--7--7--8--|
--------------------------------|--------------------------|

  E  E  E  E  E  E  E  E     E  E  E  E  E  E  E  E
--------------------------|--------------------------|
--------------------------|--------------------------|
--------------------------|--------------------------|
--------------------------|--------------------------|
--8--8--7--7--7--7--7--7--|--------------------------|
--------------------------|--7--7--7--7--7--7--7--7--|

  E  E  E  E  E  E  E  E     E  E  E  E  E  E  E  E
--------------------------|--------------------------|
--------------------------|--------------------------|
--------------------------|--------------------------|
--------------------------|--------------------------|
--------------------------|--7--7--7--7--7--7--7--7--|
--6--6--6--6--6--6--6--6--|--------------------------|

  E  E  E  E  E  E  E  E     E  E  E  E  E  E  E  E
--------------------------|--------------------------|
--------------------------|--------------------------|
--------------------------|--------------------------|
--------------------------|--------------------------|
--7--7--7--7--7--7--7--7--|--7--7--7--7--7--7--7--7--|
--------------------------|--------------------------|

  E  E   E   E   E   E   E   E     E  E  E  E  E  E  E  E
--------------------------------|--------------------------|
--------------------------------|--------------------------|
--------------------------------|--------------------------|
--------------------------------|--------------------------|
--7--7--12--12--10--10--12--12--|--7--7--7--7--7--7--7--8--|
--------------------------------|--------------------------|

  E  E  E  E  E  E  E  E     E  E  E  E  E  E  E  E     E  E  E  E  E  E  E
--------------------------|--------------------------|-----------------------|
--------------------------|--------------------------|-----------------------|
--------------------------|--------------------------|-----------------------|
--------------------------|--------------------------|-----------------------|
--8--8--7--7--7--7--7--7--|--------------------------|-----------------------|
--------------------------|--7--7--7--7--7--7--7--7--|--6--6--6--6--6--6--6--|

  W                                           E  E  E  E  E  E  E  E
-------------------|-------|-------|-------|--------------------------|
-------------------|-------|-------|-------|--------------------------|
-------------------|-------|-------|-------|--------------------------|
-------------------|-------|-------|-------|--------------------------|
--7----------------|-------|-------|-------|--------------------------|
-------------------|-------|-------|-------|-----------0--L--------0--|

  E  E  E  E  E  E  E  E     W                   W
--------------------------|-------------------|-------------------|
--------------------------|-------------------|-------------------|
--------------------------|-------------------|-------------------|
--------------------------|-------------------|-------------------|
--------------------------|-------------------|-------------------|
--L--------0--L--------0--|--1----------------|--4----------------|

  Q    E  E  E  E  E  E     Q    E  E  E   E   E   E
-------------------------|----------------------------|
-------------------------|----------------------------|
-------------------------|----------------------------|
-------------------------|----------------------------|
-------------------------|----------------------------|
--0----0--x--x--0--x--x--|--0----0--x--x--10--12--13--|

  Q    E  E  E  E  E  E     Q    E  E  E   E   E   E
-------------------------|----------------------------|
-------------------------|----------------------------|
-------------------------|----------------------------|
-------------------------|----------------------------|
-------------------------|----------------------------|
--0----0--x--x--0--x--x--|--0----0--x--x--10--12--13--|

  Q    E  E  E  E  E  E     Q    E  E  E   E   E   E     W
-------------------------|----------------------------|-------------------|
-------------------------|----------------------------|-------------------|
-------------------------|----------------------------|-------------------|
-------------------------|----------------------------|-------------------|
-------------------------|----------------------------|-------------------|
--0----0--x--x--0--x--x--|--0----0--x--x--10--12--13--|--7----------------|

  W                    E   E   E   E   E   E   E   E
-------------------|----------------------------------|
-------------------|----------------------------------|
-------------------|----------------------------------|
-------------------|----------------------------------|
-------------------|----------------------------------|
--3----------------|--10--10--10--10--10--10--10--10--|

   E   E   E   E   E   E   E   E      E   E   E   E   E   E   E   E
----------------------------------|----------------------------------|
----------------------------------|----------------------------------|
----------------------------------|----------------------------------|
----------------------------------|----------------------------------|
----------------------------------|----------------------------------|
--10--10--10--10--10--10--10--10--|--10--10--10--10--10--10--10--10--|

   E   E   E   E   E   E   E   E     Q    E  E  E  E  E  E
----------------------------------|-------------------------|
----------------------------------|-------------------------|
----------------------------------|-------------------------|
----------------------------------|-------------------------|
----------------------------------|-------------------------|
--10--10--10--10--10--10--10--10--|--0----0--x--x--0--x--x--|

  Q    E  E  E  E  E  E     Q    E  E  E  E  E  E     Q    E  E  E  E  E  E
-------------------------|-------------------------|-------------------------|
-------------------------|-------------------------|-------------------------|
-------------------------|-------------------------|-------------------------|
-------------------------|-------------------------|-------------------------|
-------------------------|-------------------------|-------------------------|
--0----0--x--x--0--x--x--|--5----5--x--x--5--x--x--|--8----8--x--x--8--x--x--|

   E   E   E   E   E   E   E   E      E   E   E   E   E   E   E   E   E
----------------------------------|--------------------------------------|
----------------------------------|--------------------------------------|
----------------------------------|--------------------------------------|
----------------------------------|--------------------------------------|
----------------------------------|--------------------------------------|
--10--10--10--10--10--10--10--10--|--10--10--10--10--10--10--10--10--10--|

   E   E   E   E   E   E   E   E      E   E   E   E   E   E   E   E
----------------------------------|----------------------------------|
----------------------------------|----------------------------------|
----------------------------------|----------------------------------|
----------------------------------|----------------------------------|
----------------------------------|----------------------------------|
--10--10--10--10--10--10--10--10--|--10--10--10--10--10--10--10--10--|

  E  E  E  E  E  E  E  E     E  E  E  E  E  E  E  E     Q.      Q.      Q
--------------------------|--------------------------|-----------------------|
--------------------------|--------------------------|-----------------------|
--------------------------|--------------------------|-----------------------|
--------------------------|--------------------------|-----------------------|
--------------------------|--------------------------|-----------------------|
--5--5--5--5--5--5--5--5--|--5--5--5--5--5--5--5--5--|--8------10------10----|

----------------------|-------|-------|-------|-------------------|
----------------------|-------|-------|-------|-------------------|
----------------------|-------|-------|-------|-------------------|
----------------------|-------|-------|-------|-------------------|
----------------------|-------|-------|-------|-------------------|
--12--------10--------|-------|-------|-------|--0----------------|

  H        E  E  E  E     E  E  E  E  E  E  Q
-----------------------|-------------------------|
-----------------------|-------------------------|
-----------------------|-------------------------|
-----------------------|-------------------------|
-----------------------|-------------------------|
--8--------8--8--8--8--|--8--8--8--8--8--8--8----|

   E   E   E   E  E  E   E   E      E   E  E  E   Q.      E
--------------------------------|----------------------------|
--------------------------------|----------------------------|
--------------------------------|----------------------------|
--------------------------------|----------------------------|
--------------------------------|----------------------------|
--10--10--10--10--------10--10--|--10--10--------10\---------|

  Q    Q    E  E  E  E     Q    H.              E  E  Q    E  E  Q
------------------------|--------------------|------------------------|
------------------------|--------------------|------------------------|
------------------------|--------------------|------------------------|
------------------------|--------------------|------------------------|
------------------------|--------------------|------------------------|
--0----0----0--0--0--0--|--3----3------------|--7--7--7----7--7--7----|

  E  E  Q    E  E  Q       Q    Q    E  E  E  E     Q    H.
------------------------|------------------------|--------------------|
------------------------|------------------------|--------------------|
------------------------|------------------------|--------------------|
------------------------|------------------------|--------------------|
------------------------|------------------------|--------------------|
--7--7--7----7--7--7----|--5----5----5--5--5--5--|--8----8------------|

   E   E   Q     E   E   Q        E   E   Q     E   E   Q
------------------------------|------------------------------|
------------------------------|------------------------------|
------------------------------|------------------------------|
------------------------------|------------------------------|
------------------------------|------------------------------|
--12--12--12----12--12--12----|--12--12--12----12--12--12----|

  E  E  E  E  E  E  E  E     E  E  E  E  H           E  E  Q    E  E  Q
--------------------------|-----------------------|------------------------|
--------------------------|-----------------------|------------------------|
--------------------------|-----------------------|------------------------|
--------------------------|-----------------------|------------------------|
--------------------------|-----------------------|------------------------|
--5--5--5--5--5--5--5--5--|--5--5--5--5--8--------|--8--8--8----8--8--8----|

  E  E  Q    E  E  Q       Q    Q    E  E  E  E     Q    Q    E  E  E  E
------------------------|------------------------|------------------------|
------------------------|------------------------|------------------------|
------------------------|------------------------|------------------------|
------------------------|------------------------|------------------------|
------------------------|------------------------|------------------------|
--8--8--8----8--8--8----|--3----3----3--3--3--3--|--3----3----3--3--3--3--|

  Q    Q    E  E  E  E     H        H           Q    Q    E  E  E  E
------------------------|--------------------|------------------------|
------------------------|--------------------|------------------------|
------------------------|--------------------|------------------------|
------------------------|--------------------|------------------------|
------------------------|--------------------|------------------------|
--3----3----3--3--3--3--|--8--------0--------|--5----5----5--5--5--5--|

  Q    Q    E  E  E  E     Q    Q    E  E  E  E     Q    Q    E  E  E  E
------------------------|------------------------|------------------------|
------------------------|------------------------|------------------------|
------------------------|------------------------|------------------------|
------------------------|------------------------|------------------------|
------------------------|------------------------|------------------------|
--5----5----5--5--5--5--|--8----8----8--8--8--8--|--8----8----8--8--8--8--|

   Q     Q     E   E   E   E      Q     Q     E   E   E   E
------------------------------|------------------------------|
------------------------------|------------------------------|
------------------------------|------------------------------|
------------------------------|------------------------------|
------------------------------|------------------------------|
--12----12----12--12--12--12--|--12----12----12--12--12--12--|

--------------------|--------------------|-------------------|
--------------------|--------------------|-------------------|
--------------------|--------------------|-------------------|
--------------------|--------------------|-------------------|
--------------------|--------------------|-------------------|
--13----------------|--15----------------|--1----------------|

  W                   W                   W                   W
-------------------|-------------------|-------------------|-------------------|
-------------------|-------------------|-------------------|-------------------|
-------------------|-------------------|-------------------|-------------------|
-------------------|-------------------|-------------------|-------------------|
-------------------|-------------------|-------------------|-------------------|
--L----------------|--4----------------|--6----------------|--1----------------|

  W                   E  E  Q    E  E  Q       E  E  Q    E  E  Q
-------------------|------------------------|------------------------|
-------------------|------------------------|------------------------|
-------------------|------------------------|------------------------|
-------------------|------------------------|------------------------|
-------------------|------------------------|------------------------|
--L----------------|--0--0--0----0--0--0----|--0--0--0----0--0--0----|

  |--3--|       |--3--|          |--3--|       |--3--|

  E  E  E  Q    E  E  E  Q       E  E  E  Q    E  E  E  Q
------------------------------|------------------------------|
------------------------------|------------------------------|
------------------------------|------------------------------|
------------------------------|------------------------------|
------------------------------|------------------------------|
--1--1--1--1----1--1--1--1----|--1--1--1--1----1--1--1--1----|

  |--3--|       |--3--|          |--3--|       |--3--|

  E  E  E  Q    E  E  E  Q       E  E  E  Q    E  E  E  Q
------------------------------|------------------------------|
------------------------------|------------------------------|
------------------------------|------------------------------|
------------------------------|------------------------------|
------------------------------|------------------------------|
--4--4--4--4----4--4--4--4----|--6--6--6--6----6--6--6--6----|

  |--3--|       |--3--|          |--3--|       |--3--|

  E  E  E  Q    E  E  E  Q       E  E  E  Q    E  E  E  Q
------------------------------|------------------------------|
------------------------------|------------------------------|
------------------------------|------------------------------|
------------------------------|------------------------------|
------------------------------|------------------------------|
--1--1--1--1----1--1--1--1----|--1--1--1--1----1--1--1--1----|

                       |--3--|

  H        H           E  E  E  Q    Q    Q       W
--------------------|--------------------------|-------------------|
--------------------|--------------------------|-------------------|
--------------------|--------------------------|-------------------|
--------------------|--------------------------|-------------------|
--------------------|--------------------------|-------------------|
--0--------0--------|--1--1--1--1----1----0----|--0----------------|

-------------------|-------------------|-------------------|
-------------------|-------------------|-------------------|
-------------------|-------------------|-------------------|
-------------------|-------------------|-------------------|
-------------------|-------------------|-------------------|
--L----------------|--L----------------|--L----------------|

--------------------|-------------------|-------------------|
--------------------|-------------------|-------------------|
--------------------|-------------------|-------------------|
--------------------|-------------------|-------------------|
--------------------|-------------------|-------------------|
--12----------------|--L----------------|--7----------------|

  W                   W                   W                   W
-------------------|-------------------|-------------------|-------------------|
-------------------|-------------------|-------------------|-------------------|
-------------------|-------------------|-------------------|-------------------|
-------------------|-------------------|-------------------|-------------------|
-------------------|-------------------|-------------------|-------------------|
--L----------------|--3----------------|--L----------------|--8----------------|

--------------------|--------------------|-------------------|
--------------------|--------------------|-------------------|
--------------------|--------------------|-------------------|
--------------------|--------------------|-------------------|
--------------------|--------------------|-------------------|
--10----------------|--12----------------|--L----------------|

  W                   W                   W                   W
-------------------|-------------------|-------------------|-------------------|
-------------------|-------------------|-------------------|-------------------|
-------------------|-------------------|-------------------|-------------------|
-------------------|-------------------|-------------------|-------------------|
-------------------|-------------------|-------------------|-------------------|
--7----------------|--L----------------|--3----------------|--L----------------|

  W                    W                    Q     H         Q
-------------------|--------------------|------------------------|
-------------------|--------------------|------------------------|
-------------------|--------------------|------------------------|
-------------------|--------------------|------------------------|
-------------------|--------------------|------------------------|
--8----------------|--10----------------|--12----12--------12----|

   H         Q     Q       Q    H        Q       H        Q    Q
------------------------|---------------------|---------------------|
------------------------|---------------------|---------------------|
------------------------|---------------------|---------------------|
------------------------|---------------------|---------------------|
------------------------|---------------------|---------------------|
--12--------12----12----|--7----7--------7----|--7--------7----7----|

  Q    H        Q       H        Q    Q       Q    H        Q
---------------------|---------------------|---------------------|
---------------------|---------------------|---------------------|
---------------------|---------------------|---------------------|
---------------------|---------------------|---------------------|
---------------------|---------------------|---------------------|
--3----3--------3----|--3--------3----3----|--8----8--------8----|

   Q     H         Q        E   E   E   E   E   E   E   E
------------------------|----------------------------------|
------------------------|----------------------------------|
------------------------|----------------------------------|
------------------------|----------------------------------|
------------------------|----------------------------------|
--10----10--------10----|--12--12--12--12--12--12--12--12--|

   E   E   E   E   E   E   E   E     E  E  E  E  E  E  E  E
----------------------------------|--------------------------|
----------------------------------|--------------------------|
----------------------------------|--------------------------|
----------------------------------|--------------------------|
----------------------------------|--------------------------|
--12--12--12--12--12--12--12--12--|--7--7--7--7--7--7--7--7--|

  E  E  E  E  E  E  E  E     E  E  E  E  E  E  E  E
--------------------------|--------------------------|
--------------------------|--------------------------|
--------------------------|--------------------------|
--------------------------|--------------------------|
--------------------------|--------------------------|
--7--7--7--7--7--7--7--7--|--3--3--3--3--3--3--3--3--|

  E  E  E  E  E  E  E  E     E  E  E  E  E  E  E  E
--------------------------|--------------------------|
--------------------------|--------------------------|
--------------------------|--------------------------|
--------------------------|--------------------------|
--------------------------|--------------------------|
--3--3--3--3--3--3--3--3--|--8--8--8--8--8--8--8--8--|

  E  E  E  E  E  E  E  E     E  E  E  E  E  E  E  E
--------------------------|--------------------------|
--------------------------|--------------------------|
--------------------------|--------------------------|
--------------------------|--------------------------|
--------------------------|--------------------------|
--7--7--7--7--7--7--7--7--|--8--8--8--8--8--8--8--8--|

   E   E   E   E   E   E   E   E      E   E   E   E   E   E   E   E
----------------------------------|----------------------------------|
----------------------------------|----------------------------------|
----------------------------------|----------------------------------|
----------------------------------|----------------------------------|
----------------------------------|----------------------------------|
--10--10--10--10--10--10--10--10--|--12--12--12--12--12--12--12--12--|

   E   E   E   E   E   E   E   E     E  E  E  E  E  E  E  E
----------------------------------|--------------------------|
----------------------------------|--------------------------|
----------------------------------|--------------------------|
----------------------------------|--------------------------|
----------------------------------|--------------------------|
--12--12--12--12--12--12--12--12--|--7--7--7--7--7--7--7--7--|

  E  E  E  E  E  E  E  E     E  E  E  E  E  E  E  E
--------------------------|--------------------------|
--------------------------|--------------------------|
--------------------------|--------------------------|
--------------------------|--------------------------|
--------------------------|--------------------------|
--7--7--7--7--7--7--7--7--|--3--3--3--3--3--3--3--3--|

  E  E  E  E  E  E  E  E     E  E  E  E  E  E  E  E
--------------------------|--------------------------|
--------------------------|--------------------------|
--------------------------|--------------------------|
--------------------------|--------------------------|
--------------------------|--------------------------|
--3--3--3--3--3--3--3--3--|--8--8--8--8--8--8--8--8--|

   E   E   E   E   E   E   E   E      E   E   E   E   E   E   E   E
----------------------------------|----------------------------------|
----------------------------------|----------------------------------|
----------------------------------|----------------------------------|
----------------------------------|----------------------------------|
----------------------------------|----------------------------------|
--10--10--10--10--10--10--10--10--|--12--12--12--12--12--12--12--12--|

   E   E   E   E   E   E   E   E     E  E  E  E  E  E  E  E
----------------------------------|--------------------------|
----------------------------------|--------------------------|
----------------------------------|--------------------------|
----------------------------------|--------------------------|
----------------------------------|--------------------------|
--12--12--12--12--12--12--12--12--|--7--7--7--7--7--7--7--7--|

  E  E  E  E  E  E  E  E     E  E  E  E  E  E  E  E
--------------------------|--------------------------|
--------------------------|--------------------------|
--------------------------|--------------------------|
--------------------------|--------------------------|
--------------------------|--------------------------|
--7--7--7--7--7--7--7--7--|--3--3--3--3--3--3--3--3--|

  E  E  E  E  E  E  E  E     E  E  E  E  E  E  E  E
--------------------------|--------------------------|
--------------------------|--------------------------|
--------------------------|--------------------------|
--------------------------|--------------------------|
--------------------------|--------------------------|
--3--3--3--3--3--3--3--3--|--8--8--8--8--8--8--8--8--|

   E   E   E   E   E   E   E   E      E   E   E   E   E   E   E   E
----------------------------------|----------------------------------|
----------------------------------|----------------------------------|
----------------------------------|----------------------------------|
----------------------------------|----------------------------------|
----------------------------------|----------------------------------|
--10--10--10--10--10--10--10--10--|--12--12--12--12--12--12--12--12--|

   E   E   E   E   E   E   E   E     E  E  E  E  E  E  E  E
----------------------------------|--------------------------|
----------------------------------|--------------------------|
----------------------------------|--------------------------|
----------------------------------|--------------------------|
----------------------------------|--------------------------|
--12--12--12--12--12--12--12--12--|--7--7--7--7--7--7--7--7--|

  E  E  E  E  E  E  E  E     E  E  E  E  E  E  E  E
--------------------------|--------------------------|
--------------------------|--------------------------|
--------------------------|--------------------------|
--------------------------|--------------------------|
--------------------------|--------------------------|
--7--7--7--7--7--7--7--7--|--3--3--3--3--3--3--3--3--|

  E  E  E  E  E  E  E  E     E  E  E  E  E  E  E  E
--------------------------|--------------------------|
--------------------------|--------------------------|
--------------------------|--------------------------|
--------------------------|--------------------------|
--------------------------|--------------------------|
--3--3--3--3--3--3--3--3--|--8--8--8--8--8--8--8--8--|

   E   E   E   E   E   E   E   E      E   E   E   E   E   E   E   E
----------------------------------|----------------------------------|
----------------------------------|----------------------------------|
----------------------------------|----------------------------------|
----------------------------------|----------------------------------|
----------------------------------|----------------------------------|
--10--10--10--10--10--10--10--10--|--12--12--12--12--12--12--12--12--|

   E   E   E   E   E   E   E   E     E  E  E  E  E  E  E  E
----------------------------------|--------------------------|
----------------------------------|--------------------------|
----------------------------------|--------------------------|
----------------------------------|--------------------------|
----------------------------------|--------------------------|
--12--12--12--12--12--12--12--12--|--7--7--7--7--7--7--7--7--|

  E  E  E  E  E  E  E  E     E  E  E  E  E  E  E  E
--------------------------|--------------------------|
--------------------------|--------------------------|
--------------------------|--------------------------|
--------------------------|--------------------------|
--------------------------|--------------------------|
--7--7--7--7--7--7--7--7--|--3--3--3--3--3--3--3--3--|

  E  E  E  E  E  E  E  E     E  E  E  E  E  E  E  E
--------------------------|--------------------------|
--------------------------|--------------------------|
--------------------------|--------------------------|
--------------------------|--------------------------|
--------------------------|--------------------------|
--3--3--3--3--3--3--3--3--|--8--8--8--8--8--8--8--8--|

  E  E  E  E  E  E  E  E     E  E  E  E  E  E  E  E
--------------------------|--------------------------|
--------------------------|--------------------------|
--------------------------|--------------------------|
--------------------------|--------------------------|
--------------------------|--------------------------|
--8--8--8--8--8--8--8--8--|--7--7--7--7--7--7--7--7--|

  E  E  E  E  E  E  E  E      E   E   E   E   E   E   E   E
--------------------------|----------------------------------||
--------------------------|----------------------------------||
--------------------------|----------------------------------||
--------------------------|----------------------------------||
--------------------------|----------------------------------||
--8--8--8--8--8--8--8--8--|--10--10--10--10--10--10--10--10--||

Duration Legend
---------------

E - 8th
. - note dotted
----------------

x - dead note
(n) - ghost note
NH - natural harmonic
AH - artificial harmonic
TH - tapped harmonic
SH - semi harmonic
PH - pitch harmonic
h - hammer on
b - bend
br - bendRelease
pb - preBend
pbr - preBendRelease
brb - bendReleaseBend
S - shift slide
s - legato slide
/ -  slide into from below or out of upwards
\ -  slide into from above or out of downwards
~ - vibrato
W - wide vibrato
T - tapping
						
# Artist Title Tabdesignator