Nightwish

Stargazers


							
#---------------------------------- NOTE---------------------------------#

#------------------------------------------------------------------------------#

Gtr I (B E A D G B) - 'Strings'
Gtr II (E A D G) - 'Bass'
 Intro
  Q=125
  Gm                        F   Gm                        F
 4/4

  s s s s s s s s S s s s e E    s  s s s s s s s S s s s e E
|-----------8-8-8-------------|-------------8-8-8-------------|
|-----------------------------|-------------------------------|
|-5-5-5-5---5-5-5---5-5-5-5-3-|--5--5-5-5---5-5-5---5-5-5-5-3-|
|-----------------------------|-------------------------------|
|-3-3-3-3---3-3-3---3-3-3-3-1-|--3--3-3-3---3-3-3---3-3-3-3-1-|
|-----------------------------|-------------------------------|

| H               S S S S E E   +S  H               S S S E E
|-----------------------------|-------------------------------|
|-----------------------------|-------------------------------|
|-----------------------------|-------------------------------|
|-------------------3-3-3-3-1-|-(1)-----------------3-3-3-3-1-|

  Gm                      F     Eb   C      Gm                      F
  s s s s s s s s S s s s e E   H    H      s s s s s s s s S s s s e   E
|-----------8-8-8-------------|-4----1----|-----------8-8-8-----------------|
|-----------------------------|-----------|---------------------------------|
|-5-5-5-5---5-5-5---5-5-5-5-3-|-----------|-5-5-5-5---5-5-5---5-5-5-5---3---|
|-----------------------------|-6----3----|---------------------------------|
|-3-3-3-3---3-3-3---3-3-3-3-1-|-----------|-3-3-3-3---3-3-3---3-3-3-3---1---|
|-----------------------------|-4----1----|---------------------------------|

| H               S S S S E E   H    H      H             S S S S E   E
|-----------------------------|-----------|---------------------------------|
|-----------------------------|-1---------|---------------------------------|
|-----------------------------|------3----|---------------------------------|
|-------------------3-3-3-3-1-|-----------|-----------------3-3-3-3---1-----|

  Gm                        F
   s  s s s s s s s S s s s e E
|-------------8-8-8-------------|
|-------------------------------|
|--5--5-5-5---5-5-5---5-5-5-5-3-|
|-------------------------------|
|--3--3-3-3---3-3-3---3-3-3-3-1-|
|-------------------------------|

| +S  H               S S S E E
|-------------------------------|
|-------------------------------|
|-------------------------------|
|-(1)-----------------3-3-3-3-1-|

      Gm                      F   Eb   F
   s  s s s s s s s S s s s e E   H    H
|-------------8-8-8-------------|-4----6-----------|
|-------------------------------|------------------|
|--5--5-5-5---5-5-5---5-5-5-5-3-|------3-----------|
|-------------------------------|-6----------------|
|--3--3-3-3---3-3-3---3-3-3-3-1-|------------------|
|-------------------------------|-4----6-----------|

| +S  H               S S S E E   H    Q  S S S S
|-------------------------------|------------------|
|-------------------------------|-1----3--3-3-3-3--|
|-------------------------------|------------------|
|-(1)-----------------3-3-3-3-1-|------------------|

  Gm              G#                D               Gm
  H               H                 H               H
|---------------------------------|---------------------------------|
|---------------------------------|---------------------------------|
|-5---------------6---------------|-----------------5---------------|
|---------------------------------|-5-------------------------------|
|-3---------------4---------------|-----------------3---------------|
|---------------------------------|-1-------------------------------|

| S S S S S S S S S S S S S S S S   S S S S S S S S S S S S S S S S
|---------------------------------|---------------------------------|
|---------------------------------|---------------------------------|
|---------------------------------|-5-5-5-5-5-5-5-5-----------------|
|-3-3-3-3-3-3-3-3-4-4-4-4-4-4-4-4-|-----------------3-3-3-3-3-3-3-3-|

  Eb              C                 Gm              G#
  H               H                 H               H
|---------------------------------|---------------------------------|
|---------------------------------|---------------------------------|
|---------------------------------|-5---------------6---------------|
|-6---------------3---------------|---------------------------------|
|---------------------------------|-3---------------4---------------|
|-4---------------1---------------|---------------------------------|

| S S S S S S S S S S S S S S S S   S S S S S S S S S S S S S S S S
|---------------------------------|---------------------------------|
|-1-1-1-1-1-1-1-1-----------------|---------------------------------|
|-----------------3-3-3-3-3-3-3-3-|---------------------------------|
|---------------------------------|-3-3-3-3-3-3-3-3-4-4-4-4-4-4-4-4-|

  D               Gm                Eb              F
  H               H                 H               H
|---------------------------------|---------------------------------|
|---------------------------------|---------------------------------|
|-----------------5---------------|-----------------3---------------|
|-5-------------------------------|-6-------------------------------|
|-----------------3---------------|-----------------1---------------|
|-1-------------------------------|-4-------------------------------|

| S S S S S S S S S S S S S S S S   S S S S S S S S S S S S S S S S
|---------------------------------|---------------------------------|
|---------------------------------|-1-1-1-1-1-1-1-1-3-3-3-3-3-3-3-3-|
|-5-5-5-5-5-5-5-5-----------------|---------------------------------|
|-----------------3-3-3-3-3-3-3-3-|---------------------------------|

  Gm                      F           Gm                      F
  s s s s s s s s S s s s e   E       s s s s s s s s S s s s e   E
|-----------8-8-8---------------|---------------8-8-8----------------|
|-------------------------------|------------------------------------|
|-5-5-5-5---5-5-5---5-5-5-5---3-|-----5-5-5-5---5-5-5---5-5-5-5---3--|
|-------------------------------|------------------------------------|
|-3-3-3-3---3-3-3---3-3-3-3---1-|-----3-3-3-3---3-3-3---3-3-3-3---1--|
|-------------------------------|------------------------------------|

| H             S S S S E   E     +S  H               S S S E   E
|-------------------------------|------------------------------------|
|-------------------------------|------------------------------------|
|-------------------------------|------------------------------------|
|-----------------3-3-3-3---1---|-(1)-----------------3-3-3-3---1----|

      Gm                      F   Eb   F
   s  s s s s s s s S s s s e E   H    H
|-------------8-8-8-------------|-4----6---------------||
|-------------------------------|----------------------||
|--5--5-5-5---5-5-5---5-5-5-5-3-|----------------------||
|-------------------------------|-6----8---------------||
|--3--3-3-3---3-3-3---3-3-3-3-1-|----------------------||
|-------------------------------|-4----6---------------||

| +S  H               S S S E E   H    S S S S S S S S
|-------------------------------|----------------------||
|-------------------------------|-1----3-3-3-3-3-3-3-3-||
|-------------------------------|----------------------||
|-(1)-----------------3-3-3-3-1-|----------------------||

  Gm                                F
|---------------------------------|---------------------------------|
|---------------------------------|---------------------------------|
|-5-------------------------------|---------------------------------|
|---------------------------------|-8-------------------------------|
|-3-------------------------------|---------------------------------|
|---------------------------------|-6-------------------------------|

| S S S S S S S S S S S S S S S S   S S S S S S S S S S S S S S S S
|---------------------------------|---------------------------------|
|---------------------------------|---------------------------------|
|---------------------------------|---------------------------------|
|-3-3-3-3-3-3-3-3-3-3-3-3-3-3-3-3-|-1-1-1-1-1-1-1-1-1-1-1-1-1-1-1-1-|

  Bb              F                 Gm
|---------------------------------|---------------------------------|
|-3-------------------------------|---------------------------------|
|-----------------3---------------|-5-------------------------------|
|-1-------------------------------|---------------------------------|
|-----------------1---------------|-3-------------------------------|
|---------------------------------|---------------------------------|

| S S S S S S S S S S S S S S S S   S S S S S S S S S S S S S S S S
|---------------------------------|---------------------------------|
|---------------------------------|---------------------------------|
|-1-1-1-1-1-1-1-1-----------------|---------------------------------|
|-----------------1-1-1-1-1-1-1-1-|-3-3-3-3-3-3-3-3-3-3-3-3-3-3-3-1-|

  Gm                                F
|---------------------------------|---------------------------------|
|---------------------------------|---------------------------------|
|-5-------------------------------|-3-------------------------------|
|---------------------------------|---------------------------------|
|-3-------------------------------|-1-------------------------------|
|---------------------------------|---------------------------------|

| S S S S S S S S S S S S S S S S   S S S S S S S S S S S S S S S S
|---------------------------------|---------------------------------|
|---------------------------------|---------------------------------|
|---------------------------------|---------------------------------|
|-3-3-3-3-3-3-3-3-3-3-3-3-3-3-3-3-|-1-1-1-1-1-1-1-1-1-1-1-1-1-1-1-1-|

  Bb              D                 Gm
|---------------------------------|---------------------||
|-3-------------------------------|---------------------||
|---------------------------------|-5-------------------||
|-1---------------5---------------|---------------------||
|---------------------------------|-3-------------------||
|-----------------3---------------|---------------------||

| S S S S S S S S S S S S S S S S   E E E E E E S S S S
|---------------------------------|---------------------||
|-----------------0-0-0-0-0-0-0-0-|---------------------||
|-1-1-1-1-1-1-1-1-----------------|---------------------||
|---------------------------------|-3-3-3-3-3-3-3-3-3-3-||

 Verse
  G#      Gm        Eb
|-----------------|---------------------|
|-----------------|---------------------|
|-6-------5-------|---------------------|
|-----------------|-6-------------------|
|-4-------3-------|---------------------|
|-----------------|-4-------------------|

| E E E E E E E E   E E E E E E S S S S
|-----------------|---------------------|
|-----------------|-1-1-1-1-1-1-1-1-1-1-|
|-----------------|---------------------|
|-4-4-4-4-3-3-3-3-|---------------------|

  Bb      F          Gm
|------------------|-----------------------|
|-3----------------|-----------------------|
|---------3--------|-5---------------------|
|-1----------------|-----------------------|
|---------1--------|-3---------------------|
|------------------|-----------------------|

| E E E E E. E. E    E E E E E E S S S S
|------------------|-----------------------|
|---------3--3--3--|-----------------------|
|-1-1-1-1----------|-----------------------|
|------------------|-3-3-3-3-3-3-3-3-3-3---|

  G#      Gm          Eb              F
  H       H           H               H
|-------------------|---------------------------------|
|-------------------|---------------------------------|
|-6-------5---------|-----------------3---------------|
|-------------------|-6-------------------------------|
|-4-------3---------|-----------------1---------------|
|-------------------|-4-------------------------------|

| E E E E E E E S S   S S S S S S S S S S S S S S S S
|-------------------|---------------------------------|
|-------------------|-1-1-1-1-1-1-1-1-----------------|
|-------------------|---------------------------------|
|-4-4-4-4-3-3-3-3-3-|-----------------1-1-1-1-1-1-1-1-|

  Gm
|---------------------------------|
|---------------------------------|
|-5-------------------------------|
|---------------------------------|
|-3-------------------------------|
|---------------------------------|

| S S S S S S S S S S S S S S S S
|---------------------------------|
|---------------------------------|
|---------------------------------|
|-3-3-3-3-3-3-3-3-3-3-3-3-3-3-3-3-|

  C                                 Bb
|---------------------------------|---------------------------------|
|---------------------------------|-3-------------------------------|
|---------------------------------|---------------------------------|
|-3-------------------------------|-1-------------------------------|
|---------------------------------|---------------------------------|
|-1-------------------------------|---------------------------------|

| S S S S S S S S S S S S S S S S   S S S S S S S S S S S S S S S S
|---------------------------------|---------------------------------|
|---------------------------------|---------------------------------|
|-3-3-3-3-3-3-3-3-3-3-3-3-3-3-3-3-|-1-1-1-1-1-1-1-1-1-1-1-1-1-1-1-1-|
|---------------------------------|---------------------------------|

  Eb              Bb                C
|---------------------------------|---------------------------------|
|---------------------------------|---------------------------------|
|-----------------8---------------|---------------------------------|
|-6-------------------------------|-3-------------------------------|
|-----------------6---------------|---------------------------------|
|-4-------------------------------|-1-------------------------------|

| S S S S S S S S S S S S S S S S   S S S S S S S S S S S S S S S S
|---------------------------------|---------------------------------|
|-1-1-1-1-1-1-1-1-----------------|---------------------------------|
|-----------------1-1-1-1-1-1-1-1-|-3-3-3-3-3-3-3-3-3-3-3-3-3-3-3-3-|
|---------------------------------|---------------------------------|

  C                                   Bb
|-----------------------------------|---------------------------------|
|-----------------------------------|---------------------------------|
|-----------------------------------|-8-------------------------------|
|-(3)-------------------------------|---------------------------------|
|-----------------------------------|-6-------------------------------|
|-(1)-------------------------------|---------------------------------|

|  S  S S S S S S S S S S S S S S S   S S S S S S S S S S S S S S S S
|-----------------------------------|---------------------------------|
|-----------------------------------|---------------------------------|
|--3--3-3-3-3-3-3-3-3-3-3-3-3-3-3-3-|-1-1-1-1-1-1-1-1-1-1-1-1-1-1-1-1-|
|-----------------------------------|---------------------------------|

  Eb              Gm                C
|---------------------------------|---------------------------------||
|---------------------------------|---------------------------------||
|-----------------5---------------|---------------------------------||
|-6-------------------------------|-3-------------------------------||
|-----------------3---------------|---------------------------------||
|-4-------------------------------|-1-------------------------------||

| S S S S S S S S S S S S S S S S   S S S S S S S S S S S S S S S S
|---------------------------------|---------------------------------||
|-1-1-1-1-1-1-1-1-----------------|---------------------------------||
|---------------------------------|-3-3-3-3-3-3-3-3-3-3-3-3-3-3-3-3-||
|-----------------3-3-3-3-3-3-3-3-|---------------------------------||

  Gm                                F
|---------------------------------|---------------------------------|
|---------------------------------|---------------------------------|
|-5-------------------------------|-3-------------------------------|
|---------------------------------|---------------------------------|
|-3-------------------------------|-1-------------------------------|
|---------------------------------|---------------------------------|

| S S S S S S S S S S S S S S S S   S S S S S S S S S S S S S S S S
|---------------------------------|---------------------------------|
|---------------------------------|---------------------------------|
|---------------------------------|---------------------------------|
|-3-3-3-3-3-3-3-3-3-3-3-3-3-3-3-3-|-1-1-1-1-1-1-1-1-1-1-1-1-1-1-1-1-|

  Bb              F                 Gm
|---------------------------------|---------------------------------|
|-3-------------------------------|---------------------------------|
|-----------------3---------------|-5-------------------------------|
|-1-------------------------------|---------------------------------|
|-----------------1---------------|-3-------------------------------|
|---------------------------------|---------------------------------|

| S S S S S S S S S S S S S S S S   S S S S S S S S S S S S S S S S
|---------------------------------|---------------------------------|
|---------------------------------|---------------------------------|
|-1-1-1-1-1-1-1-1-----------------|---------------------------------|
|-----------------1-1-1-1-1-1-1-1-|-3-3-3-3-3-3-3-3-3-3-3-3-3-3-3-3-|

  Gm                                F
|---------------------------------|---------------------------------|
|---------------------------------|---------------------------------|
|-5-------------------------------|-3-------------------------------|
|---------------------------------|---------------------------------|
|-3-------------------------------|-1-------------------------------|
|---------------------------------|---------------------------------|

| S S S S S S S S S S S S S S S S   S S S S S S S S S S S S S S S S
|---------------------------------|---------------------------------|
|---------------------------------|---------------------------------|
|---------------------------------|---------------------------------|
|-3-3-3-3-3-3-3-3-3-3-3-3-3-3-3-3-|-1-1-1-1-1-1-1-1-1-1-1-1-1-1-1-1-|

  Bb              D                 Gm
|---------------------------------|---------------------||
|-3-------------------------------|---------------------||
|---------------------------------|-5-------------------||
|-1---------------5---------------|---------------------||
|---------------------------------|-3-------------------||
|-----------------3---------------|---------------------||

| S S S S S S S S S S S S S S S S   E E E E E E S S S S
|---------------------------------|---------------------||
|-----------------0-0-0-0-0-0-0-0-|---------------------||
|-1-1-1-1-1-1-1-1-----------------|---------------------||
|---------------------------------|-3-3-3-3-3-3-3-3-3-3-||

 Verse
  G#      Gm        Eb
|-----------------|---------------------|
|-----------------|---------------------|
|-6-------5-------|---------------------|
|-----------------|-6-------------------|
|-4-------3-------|---------------------|
|-----------------|-4-------------------|

| E E E E E E E E   E E E E E E S S S S
|-----------------|---------------------|
|-----------------|-1-1-1-1-1-1-1-1-1-1-|
|-----------------|---------------------|
|-4-4-4-4-3-3-3-3-|---------------------|

  Bb      F          Gm
|------------------|-----------------------|
|------------------|-----------------------|
|-8----------------|-5---------------------|
|---------8--------|-----------------------|
|-6----------------|-3---------------------|
|---------6--------|-----------------------|

| E E E E E. E. E    E E E E E E S S S S
|------------------|-----------------------|
|---------3--3--3--|-----------------------|
|-1-1-1-1----------|-----------------------|
|------------------|-3-3-3-3-3-3-3-3-3-3---|

  G#      Gm        Eb          F
  H       H         H           H
|-----------------|-----------------------------|
|-----------------|-----------------------------|
|-6-------5-------|-----------------------------|
|-----------------|-6-----------8---------------|
|-4-------3-------|-----------------------------|
|-----------------|-4-----------6---------------|

| E E E E E E E E   E E S S S S S S S S S S S S
|-----------------|-----------------------------|
|-----------------|-1-1-1-1-1-1-----------------|
|-----------------|-----------------------------|
|-4-4-4-4-3-3-3-3-|-------------1-1-1-1-1-1-1-1-|

  Gm
|----------------------------------|
|----------------------------------|
|-5--------------------------------|
|----------------------------------|
|-3--------------------------------|
|----------------------------------|

| S S S S S S S S S S S S S S S S
|----------------------------------|
|----------------------------------|
|----------------------------------|
|-3-3-3-3-3-3-3-3-3-3-3-3-3-3-3-3--|

  C                                 Bb
|---------------------------------|---------------------------------|
|---------------------------------|-3-------------------------------|
|---------------------------------|---------------------------------|
|-3-------------------------------|-1-------------------------------|
|---------------------------------|---------------------------------|
|-1-------------------------------|---------------------------------|

| S S S S S S S S S S S S S S S S   S S S S S S S S S S S S S S S S
|---------------------------------|---------------------------------|
|---------------------------------|---------------------------------|
|-3-3-3-3-3-3-3-3-3-3-3-3-3-3-3-3-|-1-1-1-1-1-1-1-1-1-1-1-1-1-1-1-1-|
|---------------------------------|---------------------------------|

  Eb              Bb                C
|---------------------------------|---------------------------------|
|-----------------3---------------|---------------------------------|
|---------------------------------|---------------------------------|
|-6---------------1---------------|-3-------------------------------|
|---------------------------------|---------------------------------|
|-4-------------------------------|-1-------------------------------|

| S S S S S S S S S S S S S S S S   S S S S S S S S S S S S S S S S
|---------------------------------|---------------------------------|
|-1-1-1-1-1-1-1-1-----------------|---------------------------------|
|-----------------1-1-1-1-1-1-1-1-|-3-3-3-3-3-3-3-3-3-3-3-3-3-3-3-3-|
|---------------------------------|---------------------------------|

  C                                   Bb
|-----------------------------------|---------------------------------|
|-----------------------------------|-3-------------------------------|
|-----------------------------------|---------------------------------|
|-(3)-------------------------------|-1-------------------------------|
|-----------------------------------|---------------------------------|
|-(1)-------------------------------|---------------------------------|

|  S  S S S S S S S S S S S S S S S   S S S S S S S S S S S S S S S S
|-----------------------------------|---------------------------------|
|-----------------------------------|---------------------------------|
|--3--3-3-3-3-3-3-3-3-3-3-3-3-3-3-3-|-1-1-1-1-1-1-1-1-1-1-1-1-1-1-1-1-|
|-----------------------------------|---------------------------------|

  Eb              Gm                C
|---------------------------------|---------------------------------||
|---------------------------------|---------------------------------||
|-----------------5---------------|---------------------------------||
|-6-------------------------------|-3-------------------------------||
|-----------------3---------------|---------------------------------||
|-4-------------------------------|-1-------------------------------||

| S S S S S S S S S S S S S S S S   S S S S S S S S S S S S S S S S
|---------------------------------|---------------------------------||
|-1-1-1-1-1-1-1-1-----------------|---------------------------------||
|---------------------------------|-3-3-3-3-3-3-3-3-3-3-3-3-3-3-3-3-||
|-----------------3-3-3-3-3-3-3-3-|---------------------------------||

  Gm                                F
|---------------------------------|---------------------------------|
|---------------------------------|---------------------------------|
|-5-------------------------------|-3-------------------------------|
|---------------------------------|---------------------------------|
|-3-------------------------------|-1-------------------------------|
|---------------------------------|---------------------------------|

| S S S S S S S S S S S S S S S S   S S S S S S S S S S S S S S S S
|---------------------------------|---------------------------------|
|---------------------------------|---------------------------------|
|---------------------------------|---------------------------------|
|-3-3-3-3-3-3-3-3-3-3-3-3-3-3-3-3-|-1-1-1-1-1-1-1-1-1-1-1-1-1-1-1-1-|

  Bb              F                 Gm
|---------------------------------|---------------------------------|
|-3-------------------------------|---------------------------------|
|-----------------3---------------|-5-------------------------------|
|-1-------------------------------|---------------------------------|
|-----------------1---------------|-3-------------------------------|
|---------------------------------|---------------------------------|

| S S S S S S S S S S S S S S S S   S S S S S S S S S S S S S S S S
|---------------------------------|---------------------------------|
|---------------------------------|---------------------------------|
|-1-1-1-1-1-1-1-1-----------------|---------------------------------|
|-----------------1-1-1-1-1-1-1-1-|-3-3-3-3-3-3-3-3-3-3-3-3-3-3-3-3-|

                                    F
|---------------------------------|---------------------------------|
|---------------------------------|---------------------------------|
|-5-------------------------------|-3-------------------------------|
|---------------------------------|---------------------------------|
|-3-------------------------------|-1-------------------------------|
|---------------------------------|---------------------------------|

| S S S S S S S S S S S S S S S S   S S S S S S S S S S S S S S S S
|---------------------------------|---------------------------------|
|---------------------------------|---------------------------------|
|---------------------------------|---------------------------------|
|-3-3-3-3-3-3-3-3-3-3-3-3-3-3-3-3-|-1-1-1-1-1-1-1-1-1-1-1-1-1-1-1-1-|

  Bb              D
|---------------------------------||
|-3-------------------------------||
|---------------------------------||
|-1---------------5---------------||
|---------------------------------||
|-----------------3---------------||

| S S S S S S S S S S S S S S S S
|---------------------------------||
|-----------------0-0-0-0-0-0-0-0-||
|-1-1-1-1-1-1-1-1-----------------||
|---------------------------------||

 Bridge - Counter Verse
  Gm                     C#   Gm
|------------|--------------|------------|
|------------|--------------|------------|
|------------|--------------|------------|
|------------|--------------|------------|
|-3----------|-(3)----------|-(3)--------|
|------------|--------------|------------|

| Q  H.         Q   H    Q     Q   H.
|------------|--------------|------------|
|------------|--------------|------------|
|------------|-----------4--|------------|
|-3----------|--3-----------|--3---------|

  Gm      E    Gm                                              F   Gm
|------------|---------------------------|-----------------------|------------|
|------------|---------------------------|-----------------------|------------|
|------------|---------------------------|-----------------------|------------|
|------------|---------------------------|-----------------------|------------|
|-3----------|-(3)-----------------------|-3---------------------|-(3)--------|
|------------|---------------------------|-----------------------|------------|

| Q  H    Q     E  S S E S S E S S E S S   E S S E S S E S S E E    Q   H.
|------------|---------------------------|-----------------------|------------|
|------------|---------------------------|-----------------------|------------|
|------------|---------------------------|-----------------------|------------|
|-3-------0--|--3--3-3-3-3-3-3-3-3-3-3-3-|-3-3-3-3-3-3-3-3-3-3-1-|--3---------|

             Bridge - Counter Chorus
              Em                                                      A   D
|----------||---------------------------------|------------------------------|
|----------||---------------------------------|------------------------------|
|----------||---------------------------------|------------------------------|
|----------||-7-------------------------------|-(7)--------------------------|
|-3--------||---------------------------------|------------------------------|
|----------||-5-------------------------------|-(5)--------------------------|

| W           S S S S S S S S S S S S S S S S    S  S S S S S S S S S E E E
|----------||---------------------------------|------------------------------|
|----------||---------------------------------|------------------------------|
|----------||---------------------------------|-----------------------0---5--|
|----------||-0-0-0---0---0-0-0---0-0-0-0-0---|--0--0-0---0---0-0-0----------|

  Em
|-----------------------------------|
|-----------------------------------|
|-----------------------------------|
|-(7)-------------------------------|
|-----------------------------------|
|-(5)-------------------------------|

|  S  S S S S S S S S S S S S S S S
|-----------------------------------|
|-----------------------------------|
|-----------------------------------|
|--0--0-0---0---0-0-0---0-0-0-0-0---|

                           Bridge - Keyboard Break
|------------------------||-----------------|
|------------------------||-----------------|
|------------------------||-7---------------|
|-(7)--------------------||-----------------|
|------------------------||-5---------------|
|-(5)--------------------||-----------------|

|  S  S S S S S S S H       E E E E E E E E
|------------------------||-----------------|
|------------------------||-----------------|
|------------------------||-----------------|
|--0--0-0---0---0-0-0----||-5-5-5-5-5-5-5-5-|

  F                 Am
|-----------------|-----------------|
|-----------------|-----------------|
|-----------------|-7---------------|
|-8---------------|-----------------|
|-----------------|-5---------------|
|-6---------------|-----------------|

| E E E E E E E E   E E E E E E E E
|-----------------|-----------------|
|-----------------|-----------------|
|-----------------|-0-0-0-0-0-0-0-0-|
|-1-1-1-1-1-1-1-1-|-----------------|

                    Bridge - Counter Verse
  F                  Gm
|-----------------||--------------------------|
|-----------------||--------------------------|
|-----------------||--------------------------|
|-8---------------||--------------------------|
|-----------------||-3------------------------|
|-6---------------||--------------------------|

| E E E E E E E E    E S S E S S E S S E S S
|-----------------||--------------------------|
|-----------------||--------------------------|
|-----------------||--------------------------|
|-1-1-1-1-1-1-1-1-||-3-3-3-3-3-3-3-3-3-3-3-3--|

                        F   Gm                                        Bb C
|-------------------------|---------------------------|----------------------|
|-------------------------|---------------------------|----------------------|
|-------------------------|---------------------------|----------------------|
|-------------------------|---------------------------|----------------------|
|-(3)---------------------|-(3)-----------------------|-(3)------------------|
|-------------------------|---------------------------|----------------------|

|  E  S S E S S E S S E E    E  S S E S S E S S E S S    E  S S E S S Q  Q
|-------------------------|---------------------------|----------------------|
|-------------------------|---------------------------|----------------------|
|-------------------------|---------------------------|---------------1--3---|
|--3--3-3-3-3-3-3-3-3-3-1-|--3--3-3-3-3-3-3-3-3-3-3-3-|--3--3-3-3-3-3--------|

  Gm                                                F   Gm
|---------------------------|-------------------------|------------|
|---------------------------|-------------------------|------------|
|---------------------------|-------------------------|------------|
|---------------------------|-------------------------|------------|
|-(3)-----------------------|-(3)---------------------|-(3)--------|
|---------------------------|-------------------------|------------|

|  E  S S E S S E S S E S S    E  S S E S S E S S E E    Q   H.
|---------------------------|-------------------------|------------|
|---------------------------|-------------------------|------------|
|---------------------------|-------------------------|------------|
|--3--3-3-3-3-3-3-3-3-3-3-3-|--3--3-3-3-3-3-3-3-3-3-1-|--3---------|

               Bridge - Counter Chorus
                Em                                                      A   D
|------------||---------------------------------|------------------------------|
|------------||---------------------------------|------------------------------|
|------------||---------------------------------|------------------------------|
|------------||-7-------------------------------|-(7)--------------------------|
|-(3)--------||---------------------------------|------------------------------|
|------------||-5-------------------------------|-(5)--------------------------|

|  W            S S S S S S S S S S S S S S S S    S  S S S S S S S S S E E E
|------------||---------------------------------|------------------------------|
|------------||---------------------------------|------------------------------|
|------------||---------------------------------|-----------------------0---5--|
|------------||-0-0-0---0---0-0-0---0-0-0-0-0---|--0--0-0---0---0-0-0----------|

  Em
|-----------------------------------|
|-----------------------------------|
|-----------------------------------|
|-(7)-------------------------------|
|-----------------------------------|
|-(5)-------------------------------|

|  S  S S S S S S S S S S S S S S S
|-----------------------------------|
|-----------------------------------|
|-----------------------------------|
|--0--0-0---0---0-0-0---0-0-0-0-0---|

                           Bridge - Guitar Break
|------------------------||-----------------|
|------------------------||-----------------|
|------------------------||-7---------------|
|-(7)--------------------||-----------------|
|------------------------||-5---------------|
|-(5)--------------------||-----------------|

|  S  S S S S S S S H       E E E E E E E E
|------------------------||-----------------|
|------------------------||-----------------|
|------------------------||-----------------|
|--0--0-0---0---0-0-0----||-5-5-5-5-5-5-5-5-|

                                                        Breakdown
  F                 Am                F                  Gm     Bb
  W                 W                 W                  H      H
|-----------------|-----------------|-----------------||----------------|
|-----------------|-----------------|-----------------||----------------|
|-----------------|-7---------------|-----------------||-5------8-------|
|-8---------------|-----------------|-8---------------||----------------|
|-----------------|-5---------------|-----------------||-3------6-------|
|-6---------------|-----------------|-6---------------||----------------|

| E E E E E E E E   E E E E E E E E   E E E E E E E E    Q  E E Q  E E
|-----------------|-----------------|-----------------||----------------|
|-----------------|-----------------|-----------------||----------------|
|-----------------|-0-0-0-0-0-0-0-0-|-----------------||--------1----1--|
|-1-1-1-1-1-1-1-1-|-----------------|-1-1-1-1-1-1-1-1-||-3----3---------|

  F      C        Gm     Bb       Eb F  Gm     Gm        Bb
  H      H        H      H        Q  Q  H      H         H
|---------------|---------------|------------|----------------------|
|--------5------|---------------|------------|----------------------|
|-3-------------|-5------8------|-------5----|-5---------8----------|
|--------3------|---------------|-6--8-------|----------------------|
|-1-------------|-3------6------|-------3----|-3---------6----------|
|---------------|---------------|-4--6-------|----------------------|

| Q  E E Q  E E   Q  E E Q  E E   Q  Q  H      E S S E E E S S E E
|---------------|---------------|------------|----------------------|
|---------------|---------------|-1----------|----------------------|
|--------3----3-|--------1----1-|------------|-----------1-1-1-1-1--|
|-1----1--------|-3----3--------|----1--3----|-3-3-3-3-3------------|

  F         C           Gm        Bb          Eb    F   Gm
  H         H           H         H           Q     Q   H      +W
|---------------------|---------------------|----------------|--------|
|-----------5---------|---------------------|----------------|--------|
|-3-------------------|-5---------8---------|-----------5----|-(5)----|
|-----------3---------|---------------------|-6-----8--------|--------|
|-1-------------------|-3---------6---------|-----------3----|-(3)----|
|---------------------|---------------------|-4-----6--------|--------|

| E S S E E E S S E E   E S S E E E S S E E   E S S E E H      +W
|---------------------|---------------------|----------------|--------|
|---------------------|---------------------|-1-1-1----------|--------|
|-----------3-3-3-3-3-|-----------1-1-1-1-1-|----------------|--------|
|-1-1-1-1-1-----------|-3-3-3-3-3-----------|-------1-1-3----|-(3)----|

                                                      Flute Break
                                                       C
  +W            W            W            W            W
|------------|------------|------------|------------||------|
|------------|------------|------------|------------||------|
|-(5)--------|------------|------------|------------||------|
|------------|------------|------------|------------||-3----|
|-(3)--------|------------|------------|------------||------|
|------------|------------|------------|------------||-1----|

|------------|------------|------------|------------||------|
|------------|------------|------------|------------||------|
|------------|------------|------------|------------||------|
|-(3)--------|-(3)--------|-(3)--------|-(3)--------||------|

  Bb         Eb   Bb     C
  W          H    H      W          W
|----------|-----------|----------|------|
|----------|-----------|----------|------|
|-8--------|------8----|----------|------|
|----------|-6---------|-3--------|-3----|
|-6--------|------6----|----------|------|
|----------|-4---------|-1--------|-1----|

  Bb         Eb   G      C
  W          H    H      W
|----------|-----------|------||
|----------|-----------|------||
|-8--------|------5----|------||
|----------|-6---------|-3----||
|-6--------|------3----|------||
|----------|-4---------|-1----||

| W          H    H      W
|----------|-----------|------||
|----------|-1---------|------||
|----------|-----------|-3----||
|----------|------3----|------||

  Gm                                F
|---------------------------------|---------------------------------|
|---------------------------------|---------------------------------|
|-5-------------------------------|---------------------------------|
|---------------------------------|-8-------------------------------|
|-3-------------------------------|---------------------------------|
|---------------------------------|-6-------------------------------|

| S S S S S S S S S S S S S S S S   S S S S S S S S S S S S S S S S
|---------------------------------|---------------------------------|
|---------------------------------|---------------------------------|
|---------------------------------|---------------------------------|
|-3-3-3-3-3-3-3-3-3-3-3-3-3-3-3-3-|-1-1-1-1-1-1-1-1-1-1-1-1-1-1-1-1-|

  Bb              F                 Gm
|---------------------------------|---------------------------------|
|---------------------------------|---------------------------------|
|-8-------------------------------|-5-------------------------------|
|-----------------8---------------|---------------------------------|
|-6-------------------------------|-3-------------------------------|
|-----------------6---------------|---------------------------------|

| S S S S S S S S S S S S S S S S   S S S S S S S S S S S S S S S S
|---------------------------------|---------------------------------|
|---------------------------------|---------------------------------|
|-1-1-1-1-1-1-1-1-----------------|---------------------------------|
|-----------------1-1-1-1-1-1-1-1-|-3-3-3-3-3-3-3-3-3-3-3-3-3-3-3-3-|

                                    F
|---------------------------------|---------------------------------|
|---------------------------------|---------------------------------|
|-5-------------------------------|---------------------------------|
|---------------------------------|-8-------------------------------|
|-3-------------------------------|---------------------------------|
|---------------------------------|-6-------------------------------|

| S S S S S S S S S S S S S S S S   S S S S S S S S S S S S S S S S
|---------------------------------|---------------------------------|
|---------------------------------|---------------------------------|
|---------------------------------|---------------------------------|
|-3-3-3-3-3-3-3-3-3-3-3-3-3-3-3-3-|-1-1-1-1-1-1-1-1-1-1-1-1-1-1-1-1-|

  Bb              D                 Gm
|---------------------------------|-----------------|
|---------------------------------|-----------------|
|-8-------------------------------|-5---------------|
|-----------------5---------------|-----------------|
|-6-------------------------------|-3---------------|
|-----------------3---------------|-----------------|

| S S S S S S S S S S S S S S S S   E E E E E E E E
|---------------------------------|-----------------|
|-----------------0-0-0-0-0-0-0-0-|-----------------|
|-1-1-1-1-1-1-1-1-----------------|-----------------|
|---------------------------------|-3-3-3-3-3-3-3-3-|

 Outro
  Gm              G#                D               Gm
  H               H                 H               H
|---------------------------------|---------------------------------|
|---------------------------------|---------------------------------|
|-5---------------6---------------|-----------------5---------------|
|---------------------------------|-5-------------------------------|
|-3---------------4---------------|-----------------3---------------|
|---------------------------------|-1-------------------------------|

| S S S S S S S S S S S S S S S S   S S S S S S S S S S S S S S S S
|---------------------------------|---------------------------------|
|---------------------------------|---------------------------------|
|---------------------------------|-5-5-5-5-5-5-5-5-----------------|
|-3-3-3-3-3-3-3-3-4-4-4-4-4-4-4-4-|-----------------3-3-3-3-3-3-3-3-|

  Eb              F                 Gm
  H               H                 S S S S S S S S S Q    E.
|---------------------------------|-----------8-8-8-8----------*|
|---------------------------------|----------------------------*|
|---------------------------------|-5-5-5-5---5-5-5-5----------*|
|-6---------------8---------------|----------------------------*|
|---------------------------------|-3-3-3-3---3-3-3-3----------*|
|-4---------------6---------------|----------------------------*|

| S S S S S S S S S S S S S S S S   S S S S S S S S S E. Q
|---------------------------------|----------------------------*|
|-1-1-1-1-1-1-1-1-3-3-3-3-3-3-3-3-|----------------------------*|
|---------------------------------|----------------------------*|
|---------------------------------|-3-3-3-3---3-3-3-3----------*|

Duration Legend
---------------

W - whole; H - half; Q - quarter; E - 8th; S - 16th; T - 32nd; X - 64th; a - acciaccatura
+ - note tied to previous; . - note dotted; .. - note double dotted
Uncapitalized letters represent notes that are staccato (1/2 duration)
duration for.  Duration letters with no t number below them represent rests.  Multi-
bar rests are notated in the form Wxn, where n is the number of bars to rest for.  Low
----------------

 h   - hammer-on
 b   - bend
 pb  - pre-bend
 r   - bend release (if no number after the r, then release immediately)
 s   - legato slide
 S   - shift slide
 - natural harmonic
n  - artificial harmonic
n(n) - tapped harmonic
 ~   - vibrato
 T   - tap
 PM  - palm muting
\n/  - tremolo bar dip; n = amount to dip
 =   - hold bend; also acts as connecting device for hammers/pulls
 x   - on rhythm slash represents muted slash
Misc Legend
-----------

||o - repeat start

 &  - Coda
Tempo markers -  = BPM(8/16=s8/s16), where s8 = swing 8ths, s16 = swing 16ths
						
# Artist Title Tabdesignator