Nightwish

Sleeping Sun


							
#---------------------------------- NOTE---------------------------------#

#------------------------------------------------------------------------------#

Gtr I (E A D G B E) - 'Tuomas '
Gtr II (E A D G B E) - 'Tuomas ||'
Gtr III (D A D G) - 'Marco'
 Intro
  Slow Rock Q=110
  Dm                                     Bb                     A
 4/4

  Q  +E  E +Q   Q    Q  +E  E +Q    Q     Q   +E   E  +Q   Q    H    +H
|------------------|-------------------|-10--(10)-10-(10)--8--|-------------|
|-3--(3)-5-(5)--6--|-6--(6)-8-(8)--10--|----------------------|-8----(8)----|
|------------------|-------------------|----------------------|-------------|
|------------------|-------------------|----------------------|-------------|
|------------------|-------------------|----------------------|-------------|
|------------------|-------------------|----------------------|-------------|

  F                  C
|------------------|---------------|
|-10---------------|-8-------------|
|-------10--(10)---|------9--(9)---|
|------------------|---------------|
|------------------|---------------|
|------------------|---------------|

|------------------|---------------|
|------------------|---------------|
|------------------|---------------|
|------------------|---------------|
|------------------|---------------|
|------------------|---------------|

                        Dm
   Q   +E  E +Q    Q     H           +H
|---------------------|---------------------------|
|---------------------|---------------------------|
|-10--(10)-9-(9)------|---------------------------|
|-----------------10--|-12----------(12)----------|
|---------------------|---------------------------|
|---------------------|---------------------------|

|  W                     E  E  E  E   E   E  E  E
|---------------------|-10----10-----12-----13----|
|---------------------|----10----10------10----10-|
|---------------------|---------------------------|
|---------------------|---------------------------|
|---------------------|---------------------------|
|---------------------|---------------------------|

   E  E  E  E  E E E  E    E  E  E  E  E  E  E  E    E  E  E  E  E E E  E
|-10----10----12---8-12-|-10----10----12----13----|-10----10----12---8-12-||
|----10----10----8------|----10----10----10----10-|----10----10----8------||
|-----------------------|-------------------------|-----------------------||
|-----------------------|-------------------------|-----------------------||
|-----------------------|-------------------------|-----------------------||
|-----------------------|-------------------------|-----------------------||

|  W                       W                         W
|-----------------------|-------------------------|-----------------------||
|-----------------------|-------------------------|-----------------------||
|-----------------------|-------------------------|-----------------------||
|-----------------------|-------------------------|-----------------------||

 Verse
  Dm
   E  E  E  E  E  E  E  E    E   E  E  E  E E E  E
|-10----10----12----13----|-10-----10----12---8-12-|
|----10----10----10----10-|-----10----10----8------|
|-------------------------|------------------------|
|-------------------------|------------------------|
|-------------------------|------------------------|
|-------------------------|------------------------|

|-------------------------|------------------------|
|-------------------------|------------------------|
|-------------------------|---------------3--------|
|--0----------------------|-(0)--------------------|

                                                     F
   E  E  E  E  E  E  E  E    E   E  E  E  E E E  E    E  E  E  E  E  E  E  E
|-10----10----12----13----|-10-----10----12---8-12-|-13----13----15----17----|
|----10----10----10----10-|-----10----10----8------|----13----13----13----13-|
|-------------------------|------------------------|-------------------------|
|-------------------------|------------------------|-------------------------|
|-------------------------|------------------------|-------------------------|
|-------------------------|------------------------|-------------------------|

|-------------------------|------------------------|-------------------------|
|-------------------------|------------------------|-------------------------|
|-------------------------|---------------3--------|-------------------------|
|--0----------------------|-(0)--------------------|--3----------------------|

   E   E  E  E  E  E  E  E    E  E  E  E  E  E  E  E
|-13-----13----15----12-15-|-13----13----15----17----|
|-----13----13----13-------|----13----13----13----13-|
|--------------------------|-------------------------|
|--------------------------|-------------------------|
|--------------------------|-------------------------|
|--------------------------|-------------------------|

|--------------------------|-------------------------|
|--------------------------|-------------------------|
|---------------3----------|-------------------------|
|-(3)----------------------|--3----------------------|

                             Dm
   E   E  E  E  E  E  E  E    E  E  E  E  E  E  E  E
|-13-----13----15----15----|-10----10----12----13----|
|-----13----13----13----17-|----10----10----10-------|
|--------------------------|----------------------14-|
|--------------------------|-------------------------|
|--------------------------|-------------------------|
|--------------------------|-------------------------|

|--------------------------|-------------------------|
|--------------------------|-------------------------|
|--------------------------|-------------------------|
|-(3)-----------5----------|--0----------------------|

   E   E  E  E  E E E  E    E  E  E  E  E  E  E  E
|-10-----10----12---8-12-|-10----10----12----13----|
|-----10----10----8------|----10----10----10----10-|
|------------------------|-------------------------|
|------------------------|-------------------------|
|------------------------|-------------------------|
|------------------------|-------------------------|

|------------------------|-------------------------|
|------------------------|-------------------------|
|---------------3--------|-------------------------|
|-(0)--------------------|--0----------------------|

                           Bb
   E   E  E  E  E E E  E    E  E  E  E  E  E  E  E
|-10-----10----15---8-12-|-10----10----12----13----|
|-----10----10----8------|----11----11----11----11-|
|------------------------|-------------------------|
|------------------------|-------------------------|
|------------------------|-------------------------|
|------------------------|-------------------------|

|------------------------|-------------------------|
|------------------------|-------------------------|
|---------------3--------|--1----------------------|
|-(0)--------------------|-------------------------|

                              Gm
   E   E  E  E  E   E  E  E    E  E  E  E  E  E  E  E
|-10-----10----13-----13-12-|-10----10----12----13----|
|-----11----11-----11-------|----11----11----11----11-|
|---------------------------|-------------------------|
|---------------------------|-------------------------|
|---------------------------|-------------------------|
|---------------------------|-------------------------|

|---------------------------|-------------------------|
|---------------------------|-------------------------|
|---------------------------|-------------------------|
|---------------------------|-------------------------|
|---------------------------|-------------------------|
|---------------------------|-------------------------|

|---------------------------|-------------------------|
|---------------------------|-------------------------|
|-(1)----------(1)----------|-------------------------|
|---------------------------|--5----------------------|

                              Dm
   E   E  E  E  E   E  E  E    E  E  E  E  E  E  E  E    E  E  E  E  E   E  E  E
|-10-----10----13-----13-12-|-10----10----12----13----|-10----10----13-----13-12-||
|-----11----11-----11-------|----10----10----10----10-|----10----10-----10-------||
|---------------------------|-------------------------|--------------------------||
|---------------------------|-------------------------|--------------------------||
|---------------------------|-------------------------|--------------------------||
|---------------------------|-------------------------|--------------------------||

|  W                           W                         H           Q      Q
|---------------------------|-------------------------|--------------------------||
|---------------------------|-------------------------|-------------10------8----||
|---------------------------|-------------------------|--------------------------||
|---------------------------|-------------------------|--------------------------||
|---------------------------|-------------------------|--------------------------||
|---------------------------|-------------------------|--------------------------||

| +H           +H              W                         H          +H
|---------------------------|-------------------------|--------------------------||
|---------------------------|-------------------------|--------------------------||
|---------------------------|-------------------------|--------------------------||
|-(5)----------(5)----------|--0----------------------|--0----------(0)----------||

 Chorus
                                    Bb
|-------------|-------------------|-6----(6)----|
|-6-----------|-(6)--------(6)----|-6----(6)----|
|-7-----------|-(7)--------(7)----|-------------|
|-------------|-------------------|-------------|
|-------------|-------------------|-------------|
|-------------|-------------------|-------------|

| W              W                  W
|-------------|-------------------|-------------|
|-------------|-------------------|-------------|
|-------------|-------------------|-------------|
|-------------|-------------------|-------------|
|-------------|-------------------|-------------|
|-------------|-------------------|-------------|

| H    +H        E  E +Q   +H       H    +H
|-------------|-------------------|-------------|
|-------------|-------------------|-------------|
|-------------|-------------------|-------------|
|-0----(0)----|--0--0-(0)--(0)----|-8----(8)----|

  F
|-5--------(5)----|-6----(6)----|-------------------|-6----(6)----|
|-6--------(6)----|-8----(8)----|-10--------(10)----|-6----(6)----|
|-----------------|-------------|--7---------(7)----|-------------|
|-----------------|-------------|-------------------|-------------|
|-----------------|-------------|-------------------|-------------|
|-----------------|-------------|-------------------|-------------|

| E E +Q   +H       H    +H        E E +Q    +H       H    +H
|-----------------|-------------|-------------------|-------------|
|-----------------|-------------|-------------------|-------------|
|-----------------|-------------|-------------------|-------------|
|-3-3-(3)--(3)----|-5----(5)----|--0-0-(0)---(0)----|-8----(8)----|

  F                 D                                  Bb
  H        +H        H     +H        H         H        H     +H
|-8--------(8)----|-10----(10)----|-12--------13-----|-13----(13)----|
|-6--------(6)----|---------------|------------------|---------------|
|-----------------|--7-----(7)----|--7---------------|-10----(10)----|
|-----------------|---------------|------------------|---------------|
|-----------------|---------------|------------------|---------------|
|-----------------|---------------|------------------|---------------|

| E E +Q    H        H     +H        E E +Q   +H        H     +H
|-----------------|---------------|------------------|---------------|
|-----------------|---------------|------------------|---------------|
|-----------------|---------------|------------------|--1-----(1)----|
|-3-3-(3)---2-----|--0-----(0)----|--0-0-(0)--(0)----|---------------|

  C                   F               C               Dm
|-15--------(15)----|-17----(17)----|-15----(15)----|---------------||
|-------------------|---------------|---------------|---------------||
|--9---------(9)----|---------------|---------------|-19----(19)----||
|-------------------|---------------|---------------|---------------||
|-------------------|--8-----(8)----|-15----(15)----|---------------||
|-------------------|---------------|---------------|-22----(22)----||

|  E E +Q    +H        H     +H        H     +H        H     +H
|-------------------|---------------|---------------|---------------||
|-------------------|---------------|---------------|---------------||
|--3-3-(3)---(3)----|---------------|--3-----(3)----|---------------||
|-------------------|--3-----(3)----|---------------|--0-----(0)----||

 Verse 2
   E  E  E  E  E  E  E     E    E  E  E  E  E E  E   E
|-10----10----12----13-------|-10----10----12----8--12-|
|----10----10----10-------10-|----10----10----8--------|
|----------------------------|-------------------------|
|----------------------------|-------------------------|
|----------------------------|-------------------------|
|----------------------------|-------------------------|

|  H           Q    +S  S  E    Q     E  E  E E +Q
|----------------------------|-------------------------|
|----------------------------|-------------------------|
|----------------------------|--------------3-3-(3)----|
|--0-----------0----(0)----0-|--------0--0-------------|

   E  E  E  E  E  E  E     E    E  E  E  E  E E  E   E
|-10----10----12----13-------|-10----10----12----8--12---|
|----10----10----10-------10-|----10----10----8----------|
|----------------------------|---------------------------|
|----------------------------|---------------------------|
|----------------------------|---------------------------|
|----------------------------|---------------------------|

|  H           Q    +S  S  E    Q     E  E  E E +Q
|----------------------------|---------------------------|
|----------------------------|---------------------------|
|----------------------------|--------------3-3-(3)------|
|--0-----------0----(0)----0-|--------0--0---------------|

  F
   E  E  E  E  E  E  E     E    E  E  E  E  E  E  E   E
|-13----13----15----17-------|-------------15----12--15-|
|----13----13----13----------|-18----18-------13--------|
|-------------------------17-|----17----17--------------|
|----------------------------|--------------------------|
|----------------------------|--------------------------|
|----------------------------|--------------------------|

|  H           Q    +S  S  E    Q     E  E  E  E +Q
|----------------------------|--------------------------|
|----------------------------|--------------------------|
|----------------------------|--------------3--3-(3)----|
|--3-----------3----(3)----3-|--------3--3--------------|

   E  E  E  E  E  E  E     E    E  E  E  E  E  E  E   E
|-13----13----15----17-------|-------------15----15-------|
|----13----13----13----------|-18----18-------13-----17---|
|-------------------------17-|----17----17----------------|
|----------------------------|----------------------------|
|----------------------------|----------------------------|
|----------------------------|----------------------------|

|  H           Q    +S  S  E    Q     E  E  E  E +Q
|----------------------------|----------------------------|
|----------------------------|----------------------------|
|----------------------------|--------------3--3-(3)------|
|--3-----------3----(3)----3-|--------3--3----------------|

  Dm
   E  E  E  E  E  E  E  E    E   E  E  E  E E E  E
|-10----10----12----13----|-10-----10----12---8-12-|
|----10----10----10----10-|-----10----10----8------|
|-------------------------|------------------------|
|-------------------------|------------------------|
|-------------------------|------------------------|
|-------------------------|------------------------|

|-------------------------|------------------------|
|-------------------------|------------------------|
|-------------------------|---------------3--------|
|--0----------------------|-(0)--------------------|

   E  E  E  E  E  E  E     E    E  E  E  E  E  E  E   E
|-10----10----12----13-------|-10----10----15--------12-|
|----10----10----10-------10-|----10----10-------13-----|
|----------------------------|----------------12--------|
|----------------------------|--------------------------|
|----------------------------|--------------------------|
|----------------------------|--------------------------|

|  H           Q    +S  S  E    Q     E  E  E  E +Q
|----------------------------|--------------------------|
|----------------------------|--------------------------|
|----------------------------|--------------3--3-(3)----|
|--0-----------0----(0)----0-|--------0--0--------------|

  Bb
   E  E  E  E  E  E  E     E    E  E  E  E  E  E  E   E
|-10----10----12----13-------|-10----10----13----13--12-|
|----11----11----11-------11-|----11----11----11--------|
|----------------------------|--------------------------|
|----------------------------|--------------------------|
|----------------------------|--------------------------|
|----------------------------|--------------------------|

|  H           Q    +S  S  E    Q     E  E  E  E +Q
|----------------------------|--------------------------|
|----------------------------|--------------------------|
|--1-----------1----(1)----1-|--------1--1--1--1-(1)----|
|----------------------------|--------------------------|

  Gm
   E  E  E  E  E  E  E     E    E  E  E  E  E  E  E   E
|-10----10----12----13-------|-10----10----13----13--12---|
|----11----11----11-------11-|----11----11----11----------|
|----------------------------|----------------------------|
|----------------------------|----------------------------|
|----------------------------|----------------------------|
|----------------------------|----------------------------|

|  H           Q    +S  S  E    Q     E  E  E  E +Q
|----------------------------|----------------------------|
|----------------------------|----------------------------|
|----------------------------|----------------------------|
|--5-----------5----(5)----5-|--------5--5--5--5-(5)------|

  Dm
   W                         H            Q      Q
|-------------------------|---------------------------|
|-------------------------|---------------------------|
|-------------------------|---------------------------|
|-------------------------|--------------19-----17----|
|-------------------------|---------------------------|
|-------------------------|---------------------------|

|  E  E  E  E  E  E  E  E    E   E  E  E  E   E  E  E
|-10----10----12----13----|-10-----10----13-----13-12-|
|----10----10----10----10-|-----10----10-----10-------|
|-------------------------|---------------------------|
|-------------------------|---------------------------|
|-------------------------|---------------------------|
|-------------------------|---------------------------|

|-------------------------|---------------------------|
|-------------------------|---------------------------|
|-------------------------|---------------------------|
|--0----------------------|-(0)----------(0)----------|

 Chorus
                                 Bb
|------------|-----------------|---------------|
|------------|-----------------|---------------|
|------------|-----------------|-15----(15)----|
|-15---------|-(15)----(15)----|-15----(15)----|
|-17---------|-(17)----(17)----|---------------|
|------------|-----------------|---------------|

|  H    H        H       H        H      H
|------------|-----------------|---------------|
|------------|-----------------|---------------|
|------------|-----------5-----|---------------|
|--0----0----|---0-------------|--8------8-----|

  F               Gm              Dm
|---------------|---------------|---------------|
|---------------|---------------|---------------|
|-14----(14)----|-15----(15)----|---------------|
|-15----(15)----|-17----(17)----|-19----(19)----|
|---------------|---------------|-17----(17)----|
|---------------|---------------|---------------|

|  H      H        H      H        H      H
|---------------|---------------|---------------|
|---------------|---------------|---------------|
|---------------|---------------|---------------|
|--3------3-----|--5------5-----|--0------0-----|

  Bb                                Dm
|---------------|-----------------|---------------|-------------|
|---------------|-----------------|---------------|-------------|
|-15----(15)----|-17------(17)----|-19----(19)----|-21----22----|
|-15----(15)----|-15------(15)----|---------------|-------------|
|---------------|-----------------|-17----(17)----|-17----------|
|---------------|-----------------|---------------|-------------|

|  H      H        Q  E E   H        H      H        H     H
|---------------|-----------------|---------------|-------------|
|---------------|-----------------|---------------|--------0----|
|---------------|-----------------|---------------|-------------|
|--8------8-----|--3--3-3---2-----|--0------0-----|--0----------|

  Bb              C               F
|---------------|---------------|-17----(17)----|
|---------------|---------------|---------------|
|-22----(22)----|-24----(24)----|---------------|
|---------------|---------------|---------------|
|-20----(20)----|-19----(19)----|--8-----(8)----|
|---------------|---------------|---------------|

|  H     +H        H      H        H      H
|---------------|---------------|---------------|
|---------------|---------------|---------------|
|--1-----(1)----|--3------3-----|---------------|
|---------------|---------------|--3------3-----|

  C               Dm
|---------------|---------------||
|-20----(20)----|---------------||
|---------------|-19----(19)----||
|---------------|---------------||
|-15----(15)----|-17----(17)----||
|---------------|---------------||

|  H      H        H     +H
|---------------|---------------||
|---------------|---------------||
|--3------3-----|---------------||
|---------------|--0-----(0)----||

 Bridge
                                            C
   W            +Q    +S  S  E  +Q     Q     Q   +E   Q    Q.
|------------|----------------------------|---------------------|
|------------|----------------------------|---------------------|
|------------|----------------------------|---------------------|
|------------|----------------------------|---------------------|
|-17---------|-(17)--(17)---19-(19)---20--|-19--(19)-17---15----|
|------------|----------------------------|---------------------|

|  H    H        Q     E     E   E  E  Q     H          H
|------------|----------------------------|---------------------|
|------------|----------------------------|---------------------|
|------------|-------------------5--5-----|--3----------3-------|
|--0----0----|---------0-----0------------|---------------------|

      Bb            Dm
   H       H         H     +H        H       H
|-----------------|---------------|-----------------|
|-----------------|-15----(15)----|-17------18------|
|---------17------|---------------|-----------------|
|-----------------|---------------|-----------------|
|-17--------------|---------------|-----------------|
|-----------------|---------------|-----------------|

|  Q  E E  E E Q     H      H        Q  E E  E E Q
|-----------------|---------------|-----------------|
|-----------------|---------------|----------0-0----|
|-----1-1--1-1----|---------------|-----------------|
|-----------------|--0------0-----|-----0-0---------|

  F
|-17----------------|---------------------||
|-------18---(18)---|-17------------------||
|-------------------|--------17---(17)----||
|-------------------|---------------------||
|-------------------|---------------------||
|-------------------|---------------------||

|  H       H           Q   E  E E   E  Q
|-------------------|---------------------||
|-------------------|---------------------||
|-------------------|-----------3---3-----||
|--3-------3--------|------3--3-----------||

 Guitar Solo
  N.C.(C)       Dm
|-------------|--------------|----------------|
|-------------|--------------|----------------|
|-------------|-10-----------|-(10)-----------|
|-------------|--------------|----------------|
|-------------|--------------|----------------|
|-------------|--------------|----------------|

| E E Q  H       H    +H         Q   E E H
|-------------|--------------|----------------|
|-------------|--------------|----------------|
|-3-----------|--------------|-----------5----|
|-------------|--0----(0)----|---0---0-0------|

  Bb               F                       G
|----------------|-----------------------|-------------|-----------------|
|----------------|-----------------------|-8----(8)----|-6---------------|
|-(10)-----------|-(10)------(10)--------|-------------|-----------------|
|----------------|-----------------------|-------------|-----------------|
|----------------|-----------------------|-------------|-----------------|
|----------------|-----------------------|-------------|-----------------|

|   H     +H         Q   E E   E  E +Q     H    +H       Q  E E E E +Q
|----------------|-----------------------|-------------|-----------------|
|----------------|-----------------------|-------------|-----------------|
|----------------|-----------------------|-------------|--------5-5-(5)--|
|---8-----(8)----|---3---3-3---3--3-(3)--|-5----(5)----|-0--0-0----------|

                  Out-Chorus
  Bb               F                               C#
|---------------||-------------|-----------------|-16-----(16)----|
|---------------||-------------|-----------------|-14-----(14)----|
|---------------||-17----------|-(17)----(17)----|----------------|
|---------------||-15----------|-(15)----(15)----|----------------|
|---------------||-------------|-----------------|----------------|
|---------------||-------------|-----------------|----------------|

|---------------||-------------|-----------------|----------------|
|-(6)-----------||-(6)---------|--(6)------------|-(6)-----(6)----|
|---------------||-------------|-----------------|----------------|
|---------------||-------------|-----------------|----------------|
|---------------||-------------|-----------------|----------------|
|---------------||-------------|-----------------|----------------|

|  H     +H         H     H        H       H        H       H
|---------------||-------------|-----------------|----------------|
|---------------||-------------|-----------------|----------------|
|---------------||-------------|-----------------|--4-------4-----|
|--8-----(8)----||--3-----3----|---3-------3-----|----------------|

  G#              Bb              F                C#
|---------------|-13----(13)----|----------------|-16-----(16)----|
|-16----(16)----|-11----(11)----|-13-----(13)----|-14-----(14)----|
|-13----(13)----|---------------|-10-----(10)----|----------------|
|---------------|---------------|----------------|----------------|
|---------------|---------------|----------------|----------------|
|---------------|---------------|----------------|----------------|

|---------------|---------------|----------------|----------------|
|--4-----(4)----|--6------------|-(6)------------|-(6)------------|
|---------------|---------------|----------------|----------------|
|---------------|---------------|----------------|----------------|
|---------------|---------------|----------------|----------------|
|---------------|---------------|----------------|----------------|

|  H      H        H      H        H       H        H       H
|---------------|---------------|----------------|----------------|
|---------------|---------------|----------------|----------------|
|---------------|---------------|----------------|--4-------4-----|
|--6------6-----|--8------8-----|--3-------3-----|----------------|

  F                                                C#
|---------------|--------------|-----------------|-16-----(16)----|
|---------------|--------------|-----------------|-14-----(14)----|
|-17------------|-(17)---------|-(17)----(17)----|----------------|
|-15------------|-(15)---------|-(15)----(15)----|----------------|
|---------------|--------------|-----------------|----------------|
|---------------|--------------|-----------------|----------------|

|---------------|--------------|-----------------|----------------|
|-(6)----(6)----|---6----------|--(6)------------|-(6)-----(6)----|
|---------------|--------------|-----------------|----------------|
|---------------|--------------|-----------------|----------------|
|---------------|--------------|-----------------|----------------|
|---------------|--------------|-----------------|----------------|

|  H      H         H     H        H       H        H       H
|---------------|--------------|-----------------|----------------|
|---------------|--------------|-----------------|----------------|
|---------------|--------------|-----------------|--4-------4-----|
|--3------3-----|---3-----3----|---3-------3-----|----------------|

  Eb              G#              Eb              F
|-18----(18)----|---------------|-18----(18)----|--------------|
|-16----(16)----|---------------|-16----(16)----|--------------|
|---------------|-20----(20)----|---------------|-17-----------|
|---------------|-18----(18)----|---------------|-15-----------|
|---------------|---------------|---------------|--------------|
|---------------|---------------|---------------|--------------|

|---------------|---------------|---------------|--------------|
|--8-----(8)----|---------------|---------------|--6----(6)----|
|---------------|--8-----(8)----|--8-----(8)----|--------------|
|---------------|---------------|---------------|--------------|
|---------------|---------------|---------------|--------------|
|---------------|---------------|---------------|--------------|

|  H      H        H      H        H      H        H    +H
|---------------|---------------|---------------|--------------|
|---------------|---------------|---------------|--------------|
|--6------6-----|---------------|--6------6-----|--------------|
|---------------|--6------6-----|---------------|--3----(3)----|

   +H      +Q..   S   W          W          W
|-------------------|----------|----------|------*|
|-------------------|----------|----------|------*|
|-(17)----(17)------|----------|----------|------*|
|-(15)----(15)------|----------|----------|------*|
|-------------------|----------|----------|------*|
|-------------------|----------|----------|------*|

Duration Legend
---------------

W - whole; H - half; Q - quarter; E - 8th; S - 16th; T - 32nd; X - 64th; a - acciaccatura
+ - note tied to previous; . - note dotted; .. - note double dotted
Uncapitalized letters represent notes that are staccato (1/2 duration)
duration for.  Duration letters with no t number below them represent rests.  Multi-
bar rests are notated in the form Wxn, where n is the number of bars to rest for.  Low
----------------

 h   - hammer-on
 b   - bend
 pb  - pre-bend
 r   - bend release (if no number after the r, then release immediately)
 s   - legato slide
 S   - shift slide
 - natural harmonic
n  - artificial harmonic
n(n) - tapped harmonic
 ~   - vibrato
 T   - tap
 PM  - palm muting
\n/  - tremolo bar dip; n = amount to dip
 =   - hold bend; also acts as connecting device for hammers/pulls
 x   - on rhythm slash represents muted slash
Misc Legend
-----------

||o - repeat start

 &  - Coda
Tempo markers -  = BPM(8/16=s8/s16), where s8 = swing 8ths, s16 = swing 16ths
						
# Artist Title Tabdesignator