Metallica

One Ver 3


							
Standard tuning (EADG)
NOTE: There's no bass during most of the intro.  I've included
LEGEND:
h = hammer on
p = pull off
/ = slide up
\ = slide down
r = rest
s = 16th note (appears above bar)
a = acciaccatura (appears above bar)
(3) = Triplet 16ths (appears above bar)

              (Rest x7)               2/4
G |---------------------------------||-----------------|
D |---------------------------------||-----------------|
A |---------------------------------||-----------------|
E |-r-------------------------------||-r---------------|

   4/4        (Rest x7)               2/4
G |---------------------------------||-----------------|
D |---------------------------------||-----------------|
A |---------------------------------||-----------------|
E |-r-------------------------------||-r---------------|

   4/4        (Rest x7)                    s       s       s       s
G |---------------------------------||---------------------------------|
D |---------------------------------||---------------------------------|
A |---------------------------------||---------------------------------|
E |-r-------------------------------||-r---7-r-----7-r-----7-r-----7-r-|

   3/4                                                                  s s
G |-------------------------|-------------------------|-------------------------|-------------------------|
D |-------------------------|-------------------------|-------------------------|-------------------------|
A |-------------------------|-------------------------|-2-----------2---2h3-2---|-------------------------|
E |-7-------------------\---|-3-----------3---0---2---|-------------------------|-3-----------3---0---2---|

                    s s                       s s                       s s
G |-------------------------|-------------------------|-------------------------|-------------------------|
D |-------------------------|-------------------------|-------------------------|-------------------------|
A |-2-----------2---2h3-2---|-0-----------0---3p2-0---|-------------------------|-------------2-------2---|
E |-------------------------|-------------------------|-3-----------3---0-2-3---|-0---------------2-------|

G |-------------------------|
D |-------------------------|
A |-----------------0-------|
E |-3-----------3-----------|

G |-------------------------|-------------------------|-------------------------|-------------------------|
D |-----------------7-------|-------------------------|-------------------------|---------2-------2-------|
A |-5-------5-----------5---|-------------------------|-------------------------|-----2-------2-------2---|
E |-------------------------|-3-----------3---3---\---|-1-----------1---1---1---|-0-----------------------|

                                                                                              s s s
G |-------------------------|-------------------------|-------------------------|-------------------------|
D |-------------------------|-------------------------|-------------------------|-------------------------|
A |-5-----------5---5---\---|-------------------------|-------------------------|-------------2-2-3-r-----|
E |-------------------------|-3-----------3---3---0---|-1-----------1---1---1---|-0-----------------------|

VERSE 1:
                    s s                       s s                       s s                      a
G |-------------------------|-------------------------|-------------------------|-------------------------|
D |-------------------------|-------------------------|-------------------------|-------------------------|
A |-2-----------2---2h3-2---|-------------------------|-2-----------2---2h3-2---|-------------0--3/5------|
E |-------------------------|-3-----------3---0---2---|-------------------------|-3-----------------------|

                    s s                       s s      5/4              s s         s      s
G |-------------------------|-------------------------|-----------------------------------------|
D |-------------------------|-------------------------|-----------------------------------------|
A |-2-----------2---2h3-2---|-0-----------0---3p2-0---|-----------------------------2-r-----2-r-|
E |-------------------------|-------------------------|-3-----------3---0h2-3---0-------2-------|

    3/4             s s                       s s                       s s                      a
G |-------------------------|-------------------------|-------------------------|-------------------------|
D |-------------------------|-------------------------|-------------------------|-------------------------|
A |-2-----------2---2h3-2---|-------------------------|-2-----------2---2h3-2---|-------------0--3/5------|
E |-------------------------|-3-----------3---0---2---|-------------------------|-3-----------------------|

                    s s                       s s      5/4              s s
G |-------------------------|-------------------------|-----------------------------------------|
D |-------------------------|-------------------------|-----------------------------------------|
A |-2-----------2---2h3-2---|-0-----------0---3-2-0---|-----------------------------------------|
E |-------------------------|-------------------------|-3-----------3---0h2-3---0-------2---0---|

CHORUS 1:
   4/4
G |---------------------------------|---------------------------------|---------------------------------|
D |---------------------------------|---------------------------------|---------------------------------|
A |-------------0---2---0-----------|---------2-------0-------0---2---|-4---2---0-------3-------4-------|
E |-3-----------------------3-------|-2---0---------------------------|---------------------------------|

PRE-VERSE:
   3/4
G |-------------------------|-------------------------|-------------------------|-------------------------|
D |-------------------------|-------------------------|-------------------------|---------2-------2-------|
A |-5-----------5---5---\---|-------------------------|-------------------------|-----2---------------0---|
E |-------------------------|-3-----------3---5---3---|-1-----------1---1---1---|-0-----------------------|

                                                                                              s s s
G |-------------------------|-------------------------|-------------------------|-------------------------|
D |-------------7-----------|-------------------------|-------------------------|-------------------------|
A |-5-------5-------5---\---|-------------------------|-------------------------|-------------2-2-3-r-----|
E |-------------------------|-3-----------3---3---0---|-1-----------1---1---1---|-0-----------------------|

VERSE 2:
                    s s                                                 s s                      a
G |-------------------------|-------------------------|-------------------------|-------------------------|
D |-------------------------|-------------------------|-------------------------|-------------------------|
A |-2-----------2---2h3-2---|-------------------------|-2-----------2---2h3-2---|-------------0--3/5------|
E |-------------------------|-3-----------3---0---2---|-------------------------|-3-----------------------|

                    s s                       s s      5/4              s s         s      s
G |-------------------------|-------------------------|-----------------------------------------|
D |-------------------------|-------------------------|-----------------------------------------|
A |-2-----------2---2h3-2---|-0-----------0---3p2-0---|-----------------------------2-r-----2-r-|
E |-------------------------|-------------------------|-3-----------3---0-2-3---0-------2-------|

    3/4             s s                       s s                       s s                      a
G |-------------------------|-------------------------|-------------------------|-------------------------|
D |-------------------------|-------------------------|-------------------------|-------------------------|
A |-2-----------2---2h3-2---|-------------------------|-2-----------2---2h3-2---|-------------0--3/5------|
E |-------------------------|-3-----------3---0---2---|-------------------------|-3-----------------------|

                    s s                       s s      5/4              s s
G |-------------------------|-------------------------|-----------------------------------------|
D |-------------------------|-------------------------|-----------------------------------------|
A |-2-----------2---2h3-2---|-0-----------0---3-2-0---|-----------------------------------------|
E |-------------------------|-------------------------|-3-----------3---0h2-3---0-------2---r---|

CHORUS 2:
   4/4
G |---------------------------------|---------------------------------|---------------------------------|
D |---------------------------------|---------------------------------|---------------------------------|
A |-------------0---2---0-----------|---------2-------0-----------2---|-4---2---0-------3-------4-------|
E |-3-----------------------3-------|-2---0---------------------------|---------------------------------|

PRE-INTERLUDE:
   3/4
G |---------7---------------|-------------------------|-------------------------|-------------------------|
D |-------------7-----------|-------------------------|-------------3-----------|---------2-------2-------|
A |-5---------------5---\---|-------------------------|-------------------------|-----2-------2-------0---|
E |-------------------------|-3-----------3---3---5---|-1-------1-------1---1---|-0-----------------------|

INTERLUDE:
G |---------7---------------|-------------------------|-------------------------|-------------------------|
D |-------------7-----------|-------------5-----------|-----------------3-------|-----------------2-------|
A |-5---------------5---5---|-------------------------|-------------------------|-------------2-------0---|
E |-------------------------|-3-------3-------3---3---|-1-----------1-------1---|-0-----------------------|

G |-------------7-----------|-------------------------|-------------------------|-------------------------|
D |-----------------7-------|-----------------5-------|-------------------------|-------------------------|
A |-5-------5-----------5-\-|-------------------------|-------------------------|-------------------------|
E |-------------------------|-3-----------3-------3---|-1-----------1---1---3---|-0-----------0---0---0---|

                                                                                                s s s
G |-7-----------7-----------|-------------------------|-------------------------|-------------------------|
D |-----------------7-------|-------------------------|-------------------------|-------------------------|
A |-5-------5-----------5-\-|-------------------------|-------------------------|-----------------7-7-7-\-|
E |-------------------------|-3-----------3---5---3---|-1-----------1---1---1---|-0---0---0-----0---------|

CHORUS 3:
   4/4
G |---------------------------------|---------------------------------|---------------------------------|
D |---------------------------------|---------------------------------|---------------------------------|
A |-------------0---2---0-----------|---------2-------0-----------2---|-4---2---0-------3-------4-------|
E |-3-----------------------3-------|-2---0---------------------------|---------------------------------|

G |---------------------------------|---------------------------------|---------------------------------|
D |---------------------------------|---------------------------------|---------------------------------|
A |-------------0---2---0-----------|---------2-------0-----------2---|-4---2---0-------3-------4-------|
E |-3-----------------------3-------|-2---0---------------------------|---------------------------------|

    6/4
G |-------------------------------------------------|
D |-------------------------------------------------|
A |-------------0---2---0-------------------2-------|
E |-3-------X---------------3-------2---------------|

BRIDGE:
   3/4
G |-------------------------|-------------------------|-------------------------|-------------------------|
D |-------------------------|-------------------------|-------------------------|-------------------------|
A |-------------5-----------|-------------3-----------|-------------------------|-------------------------|
E |-5-------5-------5---0---|-3---3---3-------3---0---|-7-------7---0---7---0---|-8---8---8---0---8---0---|

G |-------------------------|-------------------------|-------------------------|-------------------------|
D |-------------------------|-------------------------|-------------------------|-------------------------|
A |-------------5-----------|-------------3-----------|-------------------------|-------------------------|
E |-5-------5-------5---0---|-3---3---3-------3---0---|-7-------7---0---7---0---|-8---8---8---0---8---0---|

G |-------------------------|-------------------------|-------------------------|-------------------------|
D |-------------------------|-------------------------|-------------------------|-------------------------|
A |-------------5-----------|-------------3-----------|-------------------------|-------------------------|
E |-5-------5-------5---0---|-3---3---3-------3---0---|-7-------7---0---7---0---|-8---8-8-8---0---8---0---|

G |-------------------------|-------------------------|-------------------------|-------------------------|
D |-------------------------|-------------------------|-------------------------|-------------------------|
A |-------------5-----------|-------------3-----------|-------------------------|-------------------------|
E |-5-------5-------5---0---|-3---3---3-------3---0---|-7-------7---0---7---0---|-8---8-8-8---0---8---0---|

G |-------------------------|-------------------------|-------------------------|-------------------------|
D |-------------------------|-------------------------|-------------------------|-------------------------|
A |-------------------------|-5---5---5-------5-------|-------------------------|-------------------------|
E |-0---0---0---3---0-------|-------------0-------0---|-7-------7---0---7---0---|-8---8---8---0---8---r---|

G |-------------------------|-------------------------|-------------------------|-------------------------|
D |-------------------------|-------------------------|-------------------------|-------------------------|
A |-------------------------|-5---5---5-------5-------|-------------------------|-------------------------|
E |-0---0---0---3---0-------|-------------0-------X---|-7-------7---0---7---r---|-8---8-8-8---0---8---r---|

   4/4
G |---------------------------------|---------------------------------|
D |---------------------------------|---------------------------------|
A |---------------------------------|---------------------------------|
E |-0-------------------------------|(0)------------------------------|

    ( 3 ) ( 3 )             ( 3 ) ( 3 )               ( 3 ) ( 3 )             ( 3 ) ( 3 )
G |-------------------------------------------------|-------------------------------------------------|
D |-------------------------------------------------|-------------------------------------------------|
A |-------------------------------------------------|-------------------------------------------------|
E |-0-0-0-0-0-0-0-r---------0-0-0-0-0-0-0-r---------|-0-0-0-0-0-0-0-r---------0-0-0-0-0-0-0-r---------|

    1 . . & . . 2 . . & . . 3 . . & . . 4 . . & . .   1 . . & . . 2 . . & . . 3 . . & . . 4 . . & . .
    ( 3 ) ( 3 )             ( 3 ) ( 3 )               ( 3 ) ( 3 )             ( 3 ) ( 3 )
G |-------------------------------------------------|-------------------------------------------------|
D |-------------------------------------------------|-------------------------------------------------|
A |-------------------------------------------------|-------------------------------------------------|
E |-0-0-0-0-0-0-0-----------0-0-0-0-0-0-0-r---------|-0-0-0-0-0-0-0-----------0-0-0-0-0-0-0-----1-----|

    1 . . & . . 2 . . & . . 3 . . & . . 4 . . & . .   1 . . & . . 2 . . & . . 3 . . & . . 4 . . & . .
PRE-VERSE (x2):
    ( 3 ) ( 3 )             ( 3 ) ( 3 )              ( 3 ) ( 3 )             ( 3 ) ( 3 )
G |------------------------------------------------|------------------------------------------------|
D |------------------------------------------------|------------------------------------------------|
A |------------------------------------------------|------------------------------------------------|
E |-0-0-0-0-0-0-0-----------0-0-0-0-0-0-0-----1----|-0-0-0-0-0-0-0-----------0-0-0-0-0-0-0-----1----|

    1 . . & . . 2 . . & . . 3 . . & . . 4 . . & . .  1 . . & . . 2 . . & . . 3 . . & . . 4 . . & . .
NEW VERSE 1 (x2):
    ( 3 ) ( 3 )             ( 3 ) ( 3 )               ( 3 ) ( 3 )             ( 3 ) ( 3 )
G |-------------------------------------------------|-------------------------------------------------|
D |-------------------------------------------------|-------------------------------------------------|
A |-------------------------------------------------|-------------------------------------------------|
E |-0-0-0-0-0-0-0-r---------0-0-0-0-0-0-0-r---------|-0-0-0-0-0-0-0-r---------0-0-0-0-0-0-0-----1-----|

    1 . . & . . 2 . . & . . 3 . . & . . 4 . . & . .   1 . . & . . 2 . . & . . 3 . . & . . 4 . . & . .
PRE-VERSE:
    ( 3 ) ( 3 )             ( 3 ) ( 3 )               ( 3 ) ( 3 )             ( 3 ) ( 3 )
G |-------------------------------------------------|-------------------------------------------------|
D |-------------------------------------------------|-------------------------------------------------|
A |-------------7-----------------------7-----8-----|-------------5-----------------------5-----8-----|
E |-0-0-0-0-0-0-------------0-0-0-0-0-0-------------|-0-0-0-0-0-0-------------0-0-0-0-0-0-------------|

    1 . . & . . 2 . . & . . 3 . . & . . 4 . . & . .   1 . . & . . 2 . . & . . 3 . . & . . 4 . . & . .
    ( 3 ) ( 3 )             ( 3 ) ( 3 )               ( 3 ) ( 3 )             ( 3 ) ( 3 )
G |-------------------------------------------------|-------------------------------------------------|
D |-------------------------------------------------|-------------------------------------------------|
A |-------------7-----------------------7-----8-----|-------------5-----------------------5-----------|
E |-0-0-0-0-0-0-------------0-0-0-0-0-0-------------|-0-0-0-0-0-0-------------0-0-0-0-0-0-------7-----|

    1 . . & . . 2 . . & . . 3 . . & . . 4 . . & . .   1 . . & . . 2 . . & . . 3 . . & . . 4 . . & . .
NEW VERSE 7 (x2):
    ( 3 ) ( 3 )             ( 3 ) ( 3 )               ( 3 ) ( 3 )             ( 3 ) ( 3 )
G |-------------------------------------------------|-------------------------------------------------|
D |-------------------------------------------------|-------------------------------------------------|
A |-------------------------------------------------|-------------------------------------------------|
E |-0-0-0-0-0-0-0-r---------0-0-0-0-0-0-0-r---------|-0-0-0-0-0-0-0-r---------0-0-0-0-0-0-0-----1-----|

    1 . . & . . 2 . . & . . 3 . . & . . 4 . . & . .   1 . . & . . 2 . . & . . 3 . . & . . 4 . . & . .
LEAD-IN TO GUITAR SOLO (Double-time feel; x2):

    ( 3 ) ( 3 )       ( 3 ) ( 3 )       ( 3 )         ( 3 ) ( 3 )       ( 3 ) ( 3 )       ( 3 )
G |-------------------------------------------------|-------------------------------------------------|
D |-------------------------------------------------|-------------------------------------------------|
A |-------------------------------------------------|-------------------------------------------------|
E |-0-0-0-0-0-0-7-----0-0-0-0-0-0-7-----0-0-0-8-----|-0-0-0-0-0-0-7-----0-0-0-0-0-0-7-----0-0-0-8-----|

    1 . . & . . 2 . . & . . 3 . . & . . 4 . . & . .   1 . . & . . 2 . . & . . 3 . . & . . 4 . . & . .
    ( 3 ) ( 3 )       ( 3 ) ( 3 )       ( 3 )         ( 3 ) ( 3 )       ( 3 ) ( 3 )       ( 3 )
G |-------------------------------------------------|-------------------------------------------------|
D |-------------------------------------------------|-------------------------------------------------|
A |-------------------------------------------------|-------------------------------------------------|
E |-0-0-0-0-0-0-7-----0-0-0-0-0-0-7-----0-0-0-8-----|-0-0-0-0-0-0-7-----0-0-0-0-0-0-7-----0-0-0-8-----|

    1 . . & . . 2 . . & . . 3 . . & . . 4 . . & . .   1 . . & . . 2 . . & . . 3 . . & . . 4 . . & . .
    ( 3 ) ( 3 )       ( 3 ) ( 3 )       ( 3 )         ( 3 ) ( 3 )       ( 3 ) ( 3 )       ( 3 ) ( 3 )
G |-------------------------------------------------|-------------------------------------------------|
D |-------------------------------------------------|-------------------------------------------------|
A |-------------------------------------------------|-------------------------------------------------|
E |-0-0-0-0-0-0-0-r---0-0-0-0-0-0-0-r---0-0-0-0-r---|-0-0-0-0-0-0-0-r---0-0-0-0-0-0-0-r---0-0-0-0-0-0-|

    1 . . & . . 2 . . & . . 3 . . & . . 4 . . & . .   1 . . & . . 2 . . & . . 3 . . & . . 4 . . & . .
GUITAR SOLO, Part 1:
    ( 3 ) ( 3 )       ( 3 ) ( 3 )       ( 3 )         ( 3 ) ( 3 )       ( 3 ) ( 3 )       ( 3 )
G |-------------------------------------------------|-------------------------------------------------|
D |-------------------------------------------------|-------------------------------------------------|
A |-------------------------------------------------|-------------------------------------------------|
E |-0-0-0-0-0-0-7-----0-0-0-0-0-0-7-----0-0-0-8-----|-0-0-0-0-0-0-7-----0-0-0-0-0-0-7-----0-0-0-8-----|

    1 . . & . . 2 . . & . . 3 . . & . . 4 . . & . .   1 . . & . . 2 . . & . . 3 . . & . . 4 . . & . .
    ( 3 ) ( 3 )       ( 3 ) ( 3 )       ( 3 )         ( 3 ) ( 3 )       ( 3 ) ( 3 )       ( 3 )
G |-------------------------------------------------|-------------------------------------------------|
D |-------------------------------------------------|-------------------------------------------------|
A |-------------------------------------------------|-------------------------------------------------|
E |-0-0-0-0-0-0-7-----0-0-0-0-0-0-7-----0-0-0-8-----|-0-0-0-0-0-0-7-----0-0-0-0-0-0-7-----0-0-0-8-----|

    1 . . & . . 2 . . & . . 3 . . & . . 4 . . & . .   1 . . & . . 2 . . & . . 3 . . & . . 4 . . & . .
    ( 3 ) ( 3 )       ( 3 ) ( 3 )       ( 3 ) ( 3 )
G |-------------------------------------------------|
D |-------------------------------------------------|
A |-------------------------------------------------|
E |-0-0-0-0-0-0-0-r---0-0-0-0-0-0-0-r---0-0-0-0-0-0-|

    1 . . & . . 2 . . & . . 3 . . & . . 4 . . & . .
GUITAR SOLO, Part 2:
    ( 3 ) ( 3 )             ( 3 ) ( 3 )       ( 3 )  ( 3 ) ( 3 )              ( 3 ) ( 3 )
G |-------------------------------------------------|-------------------------------------------------|
D |-------------------------------------------------|-------------------------------------------------|
A |-------------------------------------------------|-------------------------------------------------|
E |-0-0-0-0-0-0-7-----------0-0-0-0-0-0-7-----0-0-0-|-0-0-0-0-0-0-7-----8-----3-3-3-3-3-3-3-----3-----|

    1 . . & . . 2 . . & . . 3 . . & . . 4 . . & . .   1 . . & . . 2 . . & . . 3 . . & . . 4 . . & . .
    ( 3 ) ( 3 )             ( 3 ) ( 3 )       ( 3 )  ( 3 ) ( 3 )              ( 3 ) ( 3 )
G |-------------------------------------------------|-------------------------------------------------|
D |-------------------------------------------------|-------------------------------------------------|
A |-------------------------------------------------|-------------------------------------------------|
E |-0-0-0-0-0-0-7-----------0-0-0-0-0-0-7-----0-0-0-|-0-0-0-0-0-0-7-----8-----3-3-3-3-3-3-3-----3-----|

    1 . . & . . 2 . . & . . 3 . . & . . 4 . . & . .   1 . . & . . 2 . . & . . 3 . . & . . 4 . . & . .
    ( 3 ) ( 3 )             ( 3 ) ( 3 )       ( 3 )  ( 3 ) ( 3 )              ( 3 ) ( 3 )
G |-------------------------------------------------|-------------------------------------------------|
D |-------------------------------------------------|-------------------------------------------------|
A |-------------5-----------------------5-----------|-------------5-----6--\--------------------------|
E |-3-3-3-3-3-3-------------3-3-3-3-3-3-------------|-3-3-3-3-3-3-------------1-1-1-1-1-1-1-----1-----|

    1 . . & . . 2 . . & . . 3 . . & . . 4 . . & . .   1 . . & . . 2 . . & . . 3 . . & . . 4 . . & . .
    ( 3 ) ( 3 )             ( 3 ) ( 3 )       ( 3 )  ( 3 ) ( 3 )              ( 3 ) ( 3 )
G |-------------------------------------------------|-------------------------------------------------|
D |-------------------------------------------------|-------------------------------------------------|
A |-------------5-----------------------5-----------|-------------5-----6--\--------------------------|
E |-3-3-3-3-3-3-------------3-3-3-3-3-3-------------|-3-3-3-3-3-3-------------1-1-1-1-1-1-1-----1-----|

    1 . . & . . 2 . . & . . 3 . . & . . 4 . . & . .   1 . . & . . 2 . . & . . 3 . . & . . 4 . . & . .
    s s     s s     s s     s s       ( 3 ) ( 3 )             ( 3 ) ( 3 )
G |---------------------------------|-------------------------------------------------|
D |---------------------------------|-------------------------------------------------|
A |---------------------------------|-------------------------------------------------|
E |-0-0-3---0-0-3---X-0-3---X-0-3---|-1-1-1-1-1-1-1-----1-----1-1-1-1-1-1-1-----1--/--|

    1   &   2   &   3   &   4   &     1 . . & . . 2 . . & . . 3 . . & . . 4 . . & . .
                                      ( 3 ) ( 3 )             ( 3 ) ( 3 )
G |---------------------------------|-------------------------------------------------|
D |---------------------------------|-------------------------------------------------|
A |---------------------------------|-------------------------------------------------|
E |-0-0-3---0-0-3---0-0-3---0-0-3---|-1-1-1-1-1-1-1-----1-----1-1-1-1-1-1-1-----1-----|

    1   &   2   &   3   &   4   &     1 . . & . . 2 . . & . . 3 . . & . . 4 . . & . .
    ( 3 ) ( 3 )       ( 3 ) ( 3 ) ( 3 ) ( 3 ) ( 3 )
G |-------------------------------------------------|
D |-------------------------------------------------|
A |-------------------6-6-6-5-5-5-4-4-4-3-3-3-2-2-2-|
E |-3-3-3-3-3-3-3-r---------------------------------|

    1 . . & . . 2 . . & . . 3 . . & . . 4 . . & . .
LEAD-IN TO JAMES & KIRK HARMONY:

    ( 3 ) ( 3 )       ( 3 ) ( 3 )       ( 3 )         ( 3 ) ( 3 )       ( 3 ) ( 3 )       ( 3 )
G |-------------------------------------------------|-------------------------------------------------|
D |-------------------------------------------------|-------------------------------------------------|
A |-------------------------------------------------|-------------------------------------------------|
E |-0-0-0-0-0-0-7-----0-0-0-0-0-0-7-----0-0-0-8-----|-0-0-0-0-0-0-7-----0-0-0-0-0-0-7-----0-0-0-8-----|

    1 . . & . . 2 . . & . . 3 . . & . . 4 . . & . .   1 . . & . . 2 . . & . . 3 . . & . . 4 . . & . .
    ( 3 ) ( 3 )       ( 3 ) ( 3 )       ( 3 )         ( 3 ) ( 3 )       ( 3 ) ( 3 )       ( 3 )
G |-------------------------------------------------|-------------------------------------------------|
D |-------------------------------------------------|-------------------------------------------------|
A |-------------------------------------------------|-------------------------------------------------|
E |-0-0-0-0-0-0-7-----0-0-0-0-0-0-7-----0-0-0-8-----|-0-0-0-0-0-0-7-----0-0-0-0-0-0-7-----0-0-0-8-----|

    1 . . & . . 2 . . & . . 3 . . & . . 4 . . & . .   1 . . & . . 2 . . & . . 3 . . & . . 4 . . & . .
    ( 3 ) ( 3 )       ( 3 ) ( 3 ) ( 3 ) ( 3 ) ( 3 )
G |-------------------------------------------------|
D |-------------------------------------------------|
A |-------------------6-6-6-5-5-5-4-4-4-3-3-3-2-2-2-|
E |-0-0-0-0-0-0-0-r---------------------------------|

    1 . . & . . 2 . . & . . 3 . . & . . 4 . . & . .
    ( 3 ) ( 3 )       ( 3 ) ( 3 )       ( 3 )         ( 3 ) ( 3 )       ( 3 ) ( 3 )       ( 3 )
G |-------------------------------------------------|-------------------------------------------------|
D |-------------------------------------------------|-------------------------------------------------|
A |-------------------------------------------------|-------------------------------------------------|
E |-0-0-0-0-0-0-7-----0-0-0-0-0-0-7-----0-0-0-8-----|-0-0-0-0-0-0-7-----0-0-0-0-0-0-7-----0-0-0-8-----|

    1 . . & . . 2 . . & . . 3 . . & . . 4 . . & . .   1 . . & . . 2 . . & . . 3 . . & . . 4 . . & . .
    ( 3 ) ( 3 )       ( 3 ) ( 3 )       ( 3 )         ( 3 ) ( 3 )       ( 3 ) ( 3 )       ( 3 )
G |-------------------------------------------------|-------------------------------------------------|
D |-------------------------------------------------|-------------------------------------------------|
A |-------------------------------------------------|-------------7-----------------------------8-----|
E |-0-0-0-0-0-0-7-----0-0-0-0-0-0-7-----0-0-0-8-----|-0-0-0-0-0-0-0-----0-0-0-0-0-0-7-----0-0-0-------|

    1 . . & . . 2 . . & . . 3 . . & . . 4 . . & . .   1 . . & . . 2 . . & . . 3 . . & . . 4 . . & . .
(Repeat next staff x5):
    ( 3 ) ( 3 )       ( 3 ) ( 3 )       ( 3 )
G |-------------------------------------------------|
D |-------------------------------------------------|
A |-------------------------------------------------|
E |-0-0-0-0-0-0-7-----0-0-0-0-0-0-7-----0-0-0-8-----|

    1 . . & . . 2 . . & . . 3 . . & . . 4 . . & . .
OUTRO:
    ( 3 ) ( 3 )       ( 3 ) ( 3 )       ( 3 )         ( 3 ) ( 3 )       ( 3 ) ( 3 )       ( 3 )
G |-------------------------------------------------|-------------------------------------------------|
D |-------------------------------------------------|-------------------------------------------------|
A |-------------------------------------------------|-------------------------------------------------|
E |-0-0-0-0-0-0-7-----0-0-0-0-0-0-7-----0-0-0-8-----|-0-0-0-0-0-0-7-----0-0-0-0-0-0-7-----0-0-0-8-----|

    1 . . & . . 2 . . & . . 3 . . & . . 4 . . & . .   1 . . & . . 2 . . & . . 3 . . & . . 4 . . & . .
    ( 3 ) ( 3 )       ( 3 ) ( 3 )       ( 3 )         ( 3 ) ( 3 )       ( 3 ) ( 3 )       ( 3 )
G |-------------------------------------------------|-------------------------------------------------|
D |-------------------------------------------------|-------------------------------------------------|
A |-------------------------------------------------|-------------------------------------------------|
E |-0-0-0-0-0-0-7-----0-0-0-0-0-0-7-----0-0-0-8-----|-0-0-0-0-0-0-7-----0-0-0-0-0-0-7-----0-0-0-8-----|

    1 . . & . . 2 . . & . . 3 . . & . . 4 . . & . .   1 . . & . . 2 . . & . . 3 . . & . . 4 . . & . .
    s s     s s     s s     s s       ( 3 ) ( 3 )       ( 3 ) ( 3 )       ( 3 )
G |---------------------------------|-------------------------------------------------|
D |---------------------------------|-------------------------------------------------|
A |---------------------------------|-------------------------------------------------|
E |-0-0-3---X-0-3---X-0-3---X-0-3---|-0-0-0-0-0-0-0-----0-0-0-0-0-0-0-----0-0-0-1--/--|

    1   &   2   &   3   &   4   &     1 . . & . . 2 . . & . . 3 . . & . . 4 . . & . .
    s s     s s     s s     s s       ( 3 ) ( 3 )
G |---------------------------------|--------------------------------------|
D |---------------------------------|--------------------------------------|
A |---------------------------------|--------------------------------------|
E |-0-0-3---X-0-3---X-0-3---X-0-3---|-0-0-0-0-0-0-0---0----0-0-1---0-0-1---|

    1   &   2   &   3   &   4   &     1 . . & . . 2   &    3   &   4   &
    ( 3 ) ( 3 )                            ( 3 ) ( 3 )
G |--------------------------------------|--------------------------------------|
D |--------------------------------------|--------------------------------------|
A |--------------------------------------|--------------------------------------|
E |-0-0-0-0-0-0-0---0----0-0-1---0-0-1---|-0-0-0-0-0-0-0---0----0-0-1---0-0-1---|

    1 . . & . . 2   &    3   &   4   &     1 . . & . . 2   &    3   &   4   &
   6/4

    ( 3 ) ( 3 )
G |-----------------------------------------------------|
D |-----------------------------------------------------|
A |-----------------------------------------------------|
E |-0-0-0-0-0-0-0---0---0-0-3---X-0-3---X-0-3---X-0-3---|

    1 . . & . . 2   &   3   &   4   &   5   &   6   &
  4/4

    ( 3 ) ( 3 )       ( 3 ) ( 3 )       ( 3 )         ( 3 ) ( 3 )       ( 3 ) ( 3 )
G |-------------------------------------------------|-------------------------------------------------|
D |-------------------------------------------------|-------------------------------------------------|
A |-------------------------------------------------|-------------------7-7-7-7-7-7-7-----------------|
E |-0-0-0-0-0-0-7-----0-0-0-0-0-0-7-----0-0-0-8-----|-0-0-0-0-0-0-0-r---0-0-0-0-0-0-0-r---------------|

    1 . . & . . 2 . . & . . 3 . . & . . 4 . . & . .   1 . . & . . 2 . . & . . 3 . . & . . 4 . . & . .
						
# Artist Title Tabdesignator