Metallica

Enter Sandman Ver 6


							
Gtr I (E A D G) - 'Bass'
Gtr II (E A D G) - 'Drums'
 Intro
  Moderately Q=123
 4/4

  W          W           W           W           W
|----------|-----------|-----------|-----------|---------------|
|----------|-----------|-----------|-----------|---------------|
|----------|-----------|-----------|-----------|---------------|
|----------|-----------|-----------|-----------|---------------|

| W          H    H      H    H      H    H      H    Q.  S S
|----------|------x----|-x----x----|-x----x----|-x----x---x-x--|
|----------|-----------|-----------|-----------|---------------|
|----------|-----------|-----------|-----------|---------------|
|----------|-----------|-----------|-----------|---------------|

  W           W           W           W
|-----------|-----------|-----------|-------------|
|-----------|-----------|-----------|-------------|
|-----------|-----------|-----------|-------------|
|-----------|-----------|-----------|-------------|

| H    H      H    H      H    H      Q  Q  Q  Q
|-x----x----|-x----x----|-x----x----|-x--x--x--x--|
|-----------|-----------|-----------|-------------|
|-----------|-----------|-----------|-------------|
|-----------|-----------|-----------|-------------|

  E E E E E E E E   E E E E E E E E   E E E E E E E E   E E E E E E E E
|-----------------|-----------------|-----------------|-----------------|
|-----------------|-----------------|-----------------|-----------------|
|-----------------|-----------------|-----------------|-----------------|
|-0-0-0-0-0-0-0-0-|-0-0-0-0-0-0-0-0-|-0-0-0-0-0-0-0-0-|-0-0-0-0-0-0-0-0-|

| E E E E E E E E   E E E E E E E E   E E E E E E E E   E E E E E E E E
|-----------------|-----------------|-----------------|---------------x-|
|-----x-------x-x-|-----x-------x-x-|-----x-------x-x-|-----x-------x-x-|
|-x-x-x-x-x-x-x-x-|-x-x-x-x-x-x-x-x-|-x-x-x-x-x-x-x-x-|-x-x-x-x-x-x-x---|
|-x---x---x---x---|-x---x---x---x---|-x---x---x---x---|-x---x---x---x---|

  E E E E E E E  E   E E E E E E E  E   E E E E E E E  E   E E E E E E E  E
|------------------|------------------|------------------|------------------|
|------------------|------------------|------------------|------------------|
|---------------/7-|---------------/7-|---------------/7-|---------------/7-|
|-0-0-0-0-0-0-0----|-0-0-0-0-0-0-0----|-0-0-0-0-0-0-0----|-0-0-0-0-0-0-0----|

| E E E E E E E  E   E E E E E E E  E   E E E E E E E  E   E E E E E E E  E
|------------------|------------------|------------------|-------x--------x-|
|-----x-------x--x-|-----x-------x--x-|-----x-------x--x-|-----x-x-----x--x-|
|-x-x-x-x-x-x-x--x-|-x-x-x-x-x-x-x--x-|-x-x-x-x-x-x-x--x-|-x-x-x---x-x-x----|
|-x---x---x---x----|-x---x---x---x----|-x---x---x---x----|-x---x---x---x----|

  E E  E E E E E E   E E  E E E E E E   E E  E E E E E E   E E  E E E E E E
|------------------|------------------|------------------|------------------|
|------------------|------------------|------------------|------------------|
|-----/7-----------|-----/7-----------|-----/7-----------|-----/7-----------|
|-0-0----6-0-0-0-1-|-0-0----6-0-0-0-1-|-0-0----6-0-0-0-1-|-0-0----6-0-0-0-1-|

| E E  E E E E E E   E E  E E E E E E   E E  E E E E E E   E E  E E E E E E
|------------------|------------------|------------------|--------x---x---x-|
|------x-------x-x-|------x-------x-x-|------x-------x-x-|------x-x---x---x-|
|-x-x--x-x-x-x-x-x-|-x-x--x-x-x-x-x-x-|-x-x--x-x-x-x-x-x-|-x-x--x-----------|
|-x----x---x---x---|-x----x---x---x---|-x----x---x---x---|-x----x---x---x---|

  E E  E E E E E E   E E  E E E E E E   E E  E E E E E E   E E  E E E E E E
|------------------|------------------|------------------|------------------|
|------------------|------------------|------------------|------------------|
|-----/7-----------|-----/7-----------|-----/7-----------|-----/7-----------|
|-0-0----6-0-0-0-1-|-0-0----6-0-0-0-1-|-0-0----6-0-0-0-1-|-0-0----6-0-0-0-1-|

| E E  E E E E E E   E E  E E E E E E   E E  E E E E E E   E E  E E E E E E
|------------------|------------------|------------------|----------------x-|
|------x-------x-x-|------x-------x-x-|------x-------x-x-|------x---------x-|
|-x-x--x-x-x-x-x-x-|-x-x--x-x-x-x-x-x-|-x-x--x-x-x-x-x-x-|-x-x--x-x-x-x-x---|
|-x----x---x---x---|-x----x---x---x---|-x----x---x---x---|-x----x---x---x---|

  E E  E E E E E E   E E  E E E E E E   E E  E E E E E E   E E  E E E E E E
|------------------|------------------|------------------|------------------|
|------------------|------------------|------------------|------------------|
|-----/7-----------|-----/7-----------|-----/7-----------|-----/7-----------|
|-0-0----6-0-0-0-1-|-0-0----6-0-0-0-1-|-0-0----6-0-0-0-1-|-0-0----6-0-0-0-0-|

| E E  E E E E E E   E E  E E E E E E   E E  E E E E E E   E E  E E E E E E
|------------------|------------------|------------------|----------------x-|
|------x-------x-x-|------x-------x-x-|-x-x--x-x-x-x-x-x-|-x-x--x-x-x-x-x---|
|-x-x--x-x-x-x-x-x-|-x-x--x-x-x-x-x-x-|-x-x--x-x-x-x-x-x-|-x-x--x-x-x-x-x---|
|-x----x---x---x---|-x----x---x---x---|-x----x---x---x---|-x----x---x-----x-|

  +E  E  E E Q.     E   +E  E  E E Q.     E
|---------------------|---------------------|
|---------------------|---------------------|
|-------/7------------|-------/7------------|
|-(0)-0----6-5------0-|-(0)-0----6-5------0-|

| +E  E  E E E  E E E    E  E  E E E  E E E
|-(x)-x--x-x-x--x-x-x-|--x--x--x-x-x--x-x-x-|
|--------x--------x---|--------x--------x---|
|---------------------|---------------------|
|-(x)--------x--------|--x---------x--------|

  +E  E  E E Q.     E   +E  E E E E E E E
|---------------------|-------------------|
|---------------------|-------------------|
|-------/7------------|-------------------|
|-(0)-0----6-5------3-|-(3)-0-2-0-2-3-2-0-|

|  E  E  E E E  E E E    E  E E E E E E E
|--x--x--x-x-x--x-x-x-|--x--x-x-x-x-x-x-x-|
|--------x--------x---|-------x-------x---|
|---------------------|-------------------|
|--x---------x--------|--x--------x-----x-|

   E  E  E E Q.     E   +E  E  E E Q.     E
|---------------------|---------------------|
|---------------------|---------------------|
|-------/7------------|-------/7------------|
|--0--0----6-5------0-|-(0)-0----6-5------0-|

| +E  E  E E E  E E E    E  E  E E E  E E E
|-(x)-x--x-x-x--x-x-x-|--x--x--x-x-x--x-x-x-|
|--------x--------x---|--------x--------x---|
|---------------------|---------------------|
|-(x)--------x--------|--x---------x--------|

  +E  E  E E Q.     E   +E  E E E E E E E
|---------------------|-------------------|
|---------------------|-------------------|
|-------/7------------|-------------------|
|-(0)-0----6-5------3-|-(3)-0-2-0-2-3-2-0-|

|  E  E  E E E  E E E    E  E E E E E E E
|--x--x--x-x-x--x-x-x-|--x--x-x-x-x-x-x-x-|
|--------x--------x---|-------x-------x---|
|---------------------|-------------------|
|--x---------x--------|--x--------x-----x-|

 Verse 1
  E E E E E E E E   E E E E E E E E   E E E E E E E E
|-----------------|-----------------|-----------------|
|-----------------|-----------------|-----------------|
|-----------------|-----------------|-----------------|
|-0-0-0-0-0-0-0-1-|-0-0-0-0-0-0-0-1-|-0-0-0-0-0-0-0-3-|

| E E E E E E E E   E E E E E E E E   E E E E E E E E
|-x-x-x-x-x-x-x-x-|-x-x-x-x-x-x-x-x-|-x-x-x-x-x-x-x-x-|
|-----x-------x---|-----x-------x---|-----x-------x---|
|-----------------|-----------------|-----------------|
|---------x-------|-x-------x-------|-x-------x-------|

  +E  E E E E E E E   +E  E E E E E E E   E E E E E E E E   E E E E E E E E
|-------------------|-------------------|-----------------|-----------------|
|-------------------|-------------------|-----------------|-----------------|
|-------------------|-------------------|-----------------|-----------------|
|-(3)-0-2-0-2-3-2-0-|-(0)-0-0-0-0-0-0-1-|-0-0-0-0-0-0-0-1-|-0-0-0-0-0-0-0-3-|

|  E  E E E E E E E    E  E E E E E E E   E E E E E E E E   E E E E E E E E
|--x--x-x-x-x-x-x-x-|--x--x-x-x-x-x-x-x-|-x-x-x-x-x-x-x-x-|-x-x-x-x-x-x-x-x-|
|-------x-------x---|-------x-------x---|-----x-------x---|-----x-------x---|
|-------------------|-------------------|-----------------|-----------------|
|--x--------x-----x-|-----------x-------|-x-------x-------|-x-------x-------|

                      Pre-Chorus
  +E  E E E E E E E     H.           E E
|-------------------||-------------------|
|-------------------||-------------------|
|-------------------||---------------2---|
|-(3)-0-2-0-2-3-2-2-||--2--------------2-|

|  E  E E E E E E E    +E  E E E E E E E
|--x--x-x-x-x-x-x-x-||-(x)-x-x-x-x-x-x-x-|
|-------x-------x---||-----------x-------|
|-------------------||-------------------|
|--x--------x-----x-||-(x)-------------x-|

  +H.           E E   +H.           E E
|-------------------|-------------------|
|-------------------|-------------------|
|---------------2---|---------------2---|
|-(2)-------------2-|-(2)-------------2-|

|  E  E E E E E E E    E  E E E E E E E
|--x--x-x-x-x-x-x-x-|--x--x-x-x-x-x-x-x-|
|-----------x-------|-----------x-------|
|-------------------|-------------------|
|-----------------x-|-------------------|

                       Chorus
  +H.            Q      E E E E H         E E E E H         E E E E Q.     E
|--------------------||-----------------|-----------------|-------------------|
|--------------------||-----4-----------|-----4-----------|-----4-------------|
|--------------------||-------3-2-------|-------3-2-------|-------3-2---------|
|-(2)-----------14\--||-2-2-------------|-2-2-------------|-2-2------------0--|

|  E  E E E E E  Q      Q   E E E E E E   E E E E E E E E   E E E E E  E E E
|----------------x---||-x---x-x-x-x-x-x-|-x-x-x-x-x-x-x-x-|-x-x-x-x-x--x-x-x--|
|--x--x-x-x-x-x--x---||-----x-------x---|-----x-------x---|-----x----------x--|
|--x--x-x-x-x-x------||-----------------|-----------------|-------------------|
|--x----x---x--------||-x-------x-------|-x-------x-x-----|-x-------x----x----|

  +W                  E E E E Q.     E
|-------------------|------------------|
|-------------------|-----4------------|
|-------------------|-------3-2--------|
|-(0)---------------|-2-2------------0-|

|  E  E E E E E E E   Q   E E E  E E E
|--x--x-x-x-x-x-x-x-|-x---x-x-x--x-x-x-|
|-------x-------x---|-----x----------x-|
|-------------------|------------------|
|--x--------x-x---x-|-x-------x----x---|

  +W                  E   E E E E E E E
|-------------------|--------------------||
|-------------------|--------------------||
|-------------------|--------------------||
|-(0)---------------|-3---0-2-0-2-3-2-0--||

|  E  E E E E E E E   H..           E
|--x--x-x-x-x-x-x-x-|-x-------------x----||
|-------x-------x---|--------------------||
|-------------------|--------------------||
|--x--------x-x---x-|-x-------------x----||

  +E  E  E E Q.     E   +E  E  E E Q.     E
|---------------------|---------------------|
|---------------------|---------------------|
|-------/7------------|-------/7------------|
|-(0)-0----6-5------0-|-(0)-0----6-5------0-|

|  E  E  E E E  E E E    E  E  E E E  E E E
|--x--x--x-x-x--x-x-x-|--x--x--x-x-x--x-x-x-|
|--------x--------x---|--------x--------x---|
|---------------------|---------------------|
|------------x--------|--x---------x--------|

  +E  E  E E Q.     E   +E  E E E E E E E
|---------------------|--------------------|
|---------------------|--------------------|
|-------/7------------|--------------------|
|-(0)-0----6-5------3-|-(3)-0-2-0-2-3-2-0--|

|  E  E  E E E  E E E    E  E E E E E E E
|--x--x--x-x-x--x-x-x-|--x--x-x-x-x-x-x-x--|
|--------x--------x---|--x----x---x---x----|
|---------------------|--------------------|
|--x---------x--------|-----x-------x---x--|

  E E  E E Q.     E   +E  E  E E Q.     E
|-------------------|---------------------|
|-------------------|---------------------|
|-----/7------------|-------/7------------|
|-0-0----6-5------0-|-(0)-0----6-5------0-|

| E E  E E E  E E E    E  E  E E E  E E E
|-x-x--x-x-x--x-x-x-|--x--x--x-x-x--x-x-x-|
|------x--------x---|--------x--------x---|
|-------------------|---------------------|
|----------x--------|--x---------x--------|

  +E  E  E E Q.     E   +E  E E E E E E E
|---------------------|--------------------||
|---------------------|--------------------||
|-------/7------------|--------------------||
|-(0)-0----6-5------3-|-(3)-0-2-0-2-3-2-0--||

|  E  E  E E E  E E E    E  E E E E E E E
|--x--x--x-x-x--x-x-x-|--x--------------x--||
|--------x--------x---|--x--x-x-x-x-x-x----||
|---------------------|-----x-x-x-x-x-x----||
|--x---------x--------|--x----x---x-----x--||

 Verse 2
  +E  E E E E E E E   E E E E E E E E   E E E E E E E E
|-------------------|-----------------|-----------------|
|-------------------|-----------------|-----------------|
|-------------------|-----------------|-----------------|
|-(0)-0-0-0-0-0-0-1-|-0-0-0-0-0-0-0-1-|-0-0-0-0-0-0-0-3-|

|  E  E E E E E E E   E E E E E E E E   E E E E E E E E
|--x--x-x-x-x-x-x-x-|-x-x-x-x-x-x-x-x-|-x-x-x-x-x-x-x-x-|
|-------x-------x---|-----x-------x---|-----x-------x---|
|-------------------|-----------------|-----------------|
|-----------x-------|-x-------x-------|-x-------x-------|

  +E  E E E E E E E   +E  E E E E E E E   E E E E E E E E   E E E E E E E E
|-------------------|-------------------|-----------------|-----------------|
|-------------------|-------------------|-----------------|-----------------|
|-------------------|-------------------|-----------------|-----------------|
|-(3)-0-2-0-2-3-2-0-|-(0)-0-0-0-0-0-0-1-|-0-0-0-0-0-0-0-1-|-0-0-0-0-0-0-0-3-|

|  E  E E E E E E E    E  E E E E E E E   E E E E E E E E   E E E E E E E E
|--x--x-x-x-x-x-x-x-|--x--x-x-x-x-x-x-x-|-x-x-x-x-x-x-x-x-|-x-x-x-x-x-x-x-x-|
|-------x-------x---|-------x-------x---|-----x-------x---|-----x-------x---|
|-------------------|-------------------|-----------------|-----------------|
|--x--------x-----x-|-----------x-------|-x-------x-------|-x-------x-------|

                      Pre-Chorus
  +E  E E E E E E E    +H.           E E
|-------------------||-------------------|
|-------------------||-------------------|
|-------------------||---------------2---|
|-(3)-0-2-0-2-3-2-2-||-(2)-------------2-|

|  E  E E E E E E E    +E  E E E E E E E
|--x--x-x-x-x-x-x-x-||-(x)-x-x-x-x-x-x-x-|
|-------x-------x---||-----------x-------|
|-------------------||-------------------|
|--x--------x-----x-||-(x)-------------x-|

  +H.           E E   +H.           E E
|-------------------|-------------------|
|-------------------|-------------------|
|---------------2---|---------------2---|
|-(2)-------------2-|-(2)-------------2-|

|  E  E E E E E E E    E  E E E E E E E
|--x--x-x-x-x-x-x-x-|--x--x-x-x-x-x-x-x-|
|-----------x-------|-----------x-------|
|-------------------|-------------------|
|-----------------x-|-------------------|

                       Chorus
  +H.            Q      E E E E H         E E E E H         E E E E Q.     E
|--------------------||-----------------|-----------------|-------------------|
|--------------------||-----4-----------|-----4-----------|-----4-------------|
|--------------------||-------3-2-------|-------3-2-------|-------3-2---------|
|-(2)-----------14\--||-2-2-------------|-2-2-------------|-2-2------------0--|

|  E  E E E E E  Q      Q   E E E E E E   E E E E E E E E   E E E E E  E E E
|----------------x---||-x---x-x-x-x-x-x-|-x-x-x-x-x-x-x-x-|-x-x-x-x-x--x-x-x--|
|--x--x-x-x-x-x--x---||-----x-------x---|-----x-------x---|-----x----------x--|
|--x--x-x-x-x-x------||-----------------|-----------------|-------------------|
|--x----x---x--------||-x-------x-------|-x-------x-x-----|-x-------x----x----|

  +W                  E E E E Q.     E   +W
|-------------------|------------------|-------------------|
|-------------------|-----4------------|-------------------|
|-------------------|-------3-2--------|-------------------|
|-(0)---------------|-2-2------------0-|-(0)---------------|

|  E  E E E E E E E   Q   E E E  E E E    E  E E E E E E E
|--x--x-x-x-x-x-x-x-|-x---x-x-x--x-x-x-|--x--x-x-x-x-x-x-x-|
|-------x-------x---|-----x----------x-|-------x-------x---|
|-------------------|------------------|-------------------|
|--x--------x-x---x-|-x-------x----x---|--x--------x-x---x-|

  E   E E E E E E E   +H..             E
|-------------------|----------------------|
|-------------------|----------------------|
|-------------------|----------------------|
|-3---0-2-0-2-3-2-0-|-(0)--------------0---|

| H..             E   +E   E E E E E E E
|-x---------------x-|-(x)--------------x---|
|-------------------|--------x---x---x-----|
|-------------------|----------------------|
|-x---------------x-|-(x)--x---x---x---x---|

 Guitar Solo
  E E  E E Q.     E   +E  E  E E Q.     E
|-------------------|---------------------|
|-------------------|---------------------|
|-----/7------------|-------/7------------|
|-0-0----6-5------0-|-(0)-0----6-5------0-|

| E E  E E E  E E E    E  E  E E E  E E E
|-x-x--x-x-x--x-x-x-|--x--x--x-x-x--x-x-x-|
|------x--------x---|--------x--------x---|
|-------------------|---------------------|
|----------x--------|--x---------x--------|

  +E  E  E E Q.     E   +E  E E E E E E E
|---------------------|--------------------|
|---------------------|--------------------|
|-------/7------------|--------------------|
|-(0)-0----6-5------3-|-(3)-0-2-0-2-3-2-0--|

|  E  E  E E E  E E E    E  E E E E E E E
|--x--x--x-x-x--x-x-x-|--x--x-x-x-x-x-x-x--|
|--------x--------x---|-------x---x---x----|
|---------------------|--------------------|
|--x---------x--------|--x------x---x---x--|

  E E  E E Q.     E   +E  E  E E Q.     E
|-------------------|---------------------|
|-------------------|---------------------|
|-----/7------------|-------/7------------|
|-0-0----6-5------0-|-(0)-0----6-5------0-|

| E E  E E E  E E E    E  E  E E E  E E E
|-x-x--x-x-x--x-x-x-|--x--x--x-x-x--x-x-x-|
|------x--------x---|--------x--------x---|
|-------------------|---------------------|
|----------x--------|--x---------x------x-|

  +E  E  E E Q.     E   +E  E E E E E E E
|---------------------|--------------------|
|---------------------|--------------------|
|-------/7------------|--------------------|
|-(0)-0----6-5------3-|-(3)-0-2-0-2-3-2-2--|

|  E  E  E E E  E E E    E  E E E E E E E
|--x--x--x-x-x--x-x-x-|--x--x-x-x-x-x-x-x--|
|--------x------x-----|--x--x---------x----|
|-----------------x---|---------x----------|
|--x---------x------x-|-------x---x-x---x--|

  +H.           E E   +H.           E E
|-------------------|-------------------|
|-------------------|-------------------|
|---------------2---|---------------2---|
|-(2)-------------2-|-(2)-------------2-|

| +E  E E E E E E E    E  E E E E E E E
|-(x)-x-x-x-x-x-x-x-|--x--x-x-x-x-x-x-x-|
|-----------x-------|-----------x-------|
|-------------------|-------------------|
|-(x)-------------x-|-----------------x-|

  +H.           E E   +H.            Q
|-------------------|---------------------|
|-------------------|---------------------|
|---------------2---|---------------------|
|-(2)-------------2-|-(2)-----------14\---|

|  E  E E E E E E E    E  E E E E E  Q
|--x--x-x-x-x-x-x-x-|----------------x----|
|-----------x-------|--x--x-x-x-x-x--x----|
|-------------------|--x--x-x-x-x-x-------|
|-------------------|--x----x---x---------|

  E E E E H         E E E E H         E E E E Q.     E
|-----------------|-----------------|------------------|
|-----4-----------|-----4-----------|-----4------------|
|-------3-2-------|-------3-2-------|-------3-2--------|
|-2-2-------------|-2-2-------------|-2-2------------0-|

| Q   E E E E E E   E E E E E E E E   E E E E E  E E E
|-x---x-x-x-x-x-x-|-x-x-x-x-x-x-x-x-|-x-x-x-x-x--x-x-x-|
|-----x-------x---|-----x-------x---|-----x----------x-|
|-----------------|-----------------|------------------|
|-x-------x-------|-x-------x-x-----|-x-------x----x---|

  +W                  E E E E Q.     E   +W                  W
|-------------------|------------------|-------------------|------|
|-------------------|-----4------------|-------------------|------|
|-------------------|-------3-2--------|-------------------|------|
|-(0)---------------|-2-2------------0-|-(0)---------------|------|

|  E  E E E E E E E   Q   E E E  E E E    E  E E E E E E E   W
|--x--x-x-x-x-x-x-x-|-x---x-x-x--x-x-x-|--x--x-x-x-x-x-x-x-|-x----|
|-------x-------x---|-----x----------x-|-------x-------x---|------|
|-------------------|------------------|-------------------|------|
|--x--------x-x---x-|-x-------x----x---|--x--------x-x---x-|-x----|

  W                 W                 W                 H..             E
|-----------------|-----------------|-----------------|--------------------|
|-----------------|-----------------|-----------------|--------------------|
|-----------------|-----------------|-----------------|--------------------|
|-----------------|-----------------|-----------------|-----------------0--|

| E E E E E E E E   E E E E E E E E   E E E E E E E E   E   E E E E E E E
|-----------------|---x---x---x---x-|-----------------|-------------x---x--|
|-x-x-x-x-x-x-x-x-|---x---x---x---x-|-x-x-x-x-x-x-x-x-|-----x---x---x---x--|
|-----x-------x-x-|-x---------------|-----x-------x-x-|-x---x-x-x-x--------|
|-x-x---x-x-x---x-|-x---x---x---x---|-x-x---x-x-x---x-|-x-----x---x---x----|

 Interlude
  +E  E E E E E E E   E E E E E E E E   E E E E E E E E
|-------------------|-----------------|------------------|
|-------------------|-----------------|------------------|
|-------------------|-----------------|------------------|
|-(0)-0-0-0-0-0-0-0-|-0-0-0-0-0-0-0-0-|-0-0-0-0-0-0-0-0--|

|  E  E E E E E E E   E E E E E E E E   E E E E E E E E
|-------------------|---x---x---x---x-|------------------|
|--x--x-x-x-x-x-x-x-|---x---x---x---x-|-x-x-x-x-x-x-x-x--|
|-------x-------x-x-|-x---------------|-----x-------x-x--|
|--x--x---x-x-x---x-|-x---x---x---x---|-x-x---x-x-x---x--|

  E E E E E E E E   E E E E E E E E   E E E E E E E E
|-----------------|-----------------|--------------------|
|-----------------|-----------------|--------------------|
|-----------------|-----------------|--------------------|
|-0-0-0-0-0-0-0-0-|-0-0-0-0-0-0-0-0-|-0-0-0-0-0-0-0-0----|

| E E E E E E E E   E E E E E E E E   E E E E E E E E
|---x---x---x---x-|-----------------|--------------------|
|---x---x---x---x-|-x-x-x-x-x-x-x-x-|-x-x-x-x-x-x-x-x----|
|-x---------------|-----x-------x-x-|-----x-------x-x----|
|-x---x---x---x---|-x-x---x-x-x---x-|-x-x---x-x-x---x----|

  E E E E E E E E     E   E   E E   E   E   E E
|-------------------|---------------------------|
|-------------------|---------------------------|
|-------------------|---------------------------|
|-0-0-0-0-0-0-0-0---|-0---0---0-0---0---0---0-2-|

| E E E E E E E S S   S S S S E S S S S S S E E
|-------------------|---------------------------|
|-x-x-x-x-x-x-x-----|---------------------------|
|-----x-------x-x-x-|-x-x-x-x-x-x-x-x-x-x-x-x-x-|
|-x-x---x-x-x-------|-x-------x-----x-------x---|

  H.          E E   +H.           E E   +H.           E E   +H.           E E
|-----------------|-------------------|-------------------|--------------------|
|-----------------|-------------------|-------------------|--------------------|
|-------------2---|---------------2---|---------------2---|---------------2----|
|-2-------------2-|-(2)-------------2-|-(2)-------------2-|-(2)-------------2--|

| E  E Q  E E E E    E  E E E E E E E    E  E E E E E E E    E  E E E E E E E
|------x----------|-------------x---x-|-------------------|-------------x---x--|
|------x------x-x-|-------x-----x---x-|-------x-------x-x-|-------x-----x---x--|
|-x--x----x-x-x-x-|--x--x-x-x-x-------|--x--x-x-x-x-x-x-x-|--x--x-x-x-x--------|
|-x-------x---x---|--x----x---x---x---|--x----x---x---x---|--x----x---x---x----|

  +H.           E E   +H.           E E
|-------------------|-------------------|
|-------------------|-------------------|
|---------------2---|---------------2---|
|-(2)-------------2-|-(2)-------------2-|

|  E  E E E E E E E    E  E E E E E E E
|-------------------|-------------------|
|-------x-------x-x-|-------x-------x-x-|
|--x--x-x-x-x-x-x-x-|--x--x-x-x-x-x-x-x-|
|--x----x---x---x---|--x----x---x---x---|

  +H.           E E   +H.            Q
|-------------------|----------------------|
|-------------------|----------------------|
|---------------2---|----------------------|
|-(2)-------------2-|-(2)-----------14\----|

|  E  E E E E E E E    E  E E E E E  E  E
|-------------------|----------------------|
|--x--x-x-x-x-x-x-x-|--x--x-x-x------------|
|--x--x-x-x-x-x-x-x-|--x--x-x-x-x----x-----|
|--x----x---x---x---|--x----x-----x-----x--|

 Out-Chorus
  E E E E H         E E E E H         E E E E Q.     E   +W
|-----------------|-----------------|------------------|-------------------|
|-----4-----------|-----4-----------|-----4------------|-------------------|
|-------3-2-------|-------3-2-------|-------3-2--------|-------------------|
|-2-2-------------|-2-2-------------|-2-2------------0-|-(0)---------------|

| Q   E E E E E E   E E E E E E E E   E E E E E  E E E    E  E E E E E Q
|-x---x-x-x-x-x-x-|-x-x-x-x-x-x-x-x-|-x-x-x-x-x--x-x-x-|---------------x---|
|-----x-------x---|-----x-------x---|-----x----------x-|--x--x-x-x-x-x-x---|
|-----------------|-----------------|------------------|--x--x-x-x-x-x-----|
|-x-------x-------|-x-------x-x-----|-x-------x----x---|--x----x---x-------|

  E E E E Q.     E   +W                  E E E E H         E E E E H
|------------------|-------------------|-----------------|------------------|
|-----4------------|-------------------|-----4-----------|-----4------------|
|-------3-2--------|-------------------|-------3-2-------|-------3-2--------|
|-2-2------------0-|-(0)---------------|-2-2-------------|-2-2--------------|

| E E E E E  E E E    E  E E E E E E E   Q   E E E E E E   E E E E E E E E
|-x-x-x-x-x--x-x-x-|--x--x-x-x---------|-x---x-x-x-x-x-x-|-x-x-x-x-x-x-x-x--|
|-----x--------x---|-------x-----------|-----x-------x---|-----x-------x----|
|------------------|-----------x---x---|-----------------|------------------|
|-x-------x--x---x-|--x----------x---x-|-x-------x-------|-x-------x-x------|

  E E E E Q.     E   +W                 E E E E Q.     E   +W
|------------------|------------------|------------------|--------------------|
|-----4------------|------------------|-----4------------|--------------------|
|-------3-2--------|------------------|-------3-2--------|--------------------|
|-2-2------------0-|-(0)--------------|-2-2------------0-|-(0)----------------|

| E E E E E  E E E    E  E E E E E Q    Q   E E E  E E E    E  E E E E E E E
|-x-x-x-x-x--x-x-x-|---------------x--|-x---x-x-x--x-x-x-|--x--x-x-x-x-x-x-x--|
|-----x----------x-|--x--x-x-x-x-x-x--|-----x----------x-|-------x-------x----|
|------------------|--x--x-x-x-x-x----|------------------|--------------------|
|-x-------x----x---|--x----x---x------|-x-------x----x---|--x--------x-x---x--|

                                   Outro
  E   E E E E E E E   +W            W          H..       E
|-------------------|------------||----------|-------------|
|-------------------|------------||----------|-------------|
|-------------------|------------||----------|-------------|
|-3---0-2-0-2-3-2-0-|-(0)--------||----------|-----------0-|

| H..             E   +W            W          H..       E
|-x---------------x-|-(x)--------||----------|-----------x-|
|-------------------|------------||----------|-------------|
|-------------------|------------||----------|-------------|
|-x---------------x-|-(x)--------||----------|-----------x-|

  +E  E  E E Q.     E   +E  E  E E Q.     E   +E  E  E E Q.     E
|---------------------|---------------------|---------------------|
|---------------------|---------------------|---------------------|
|-------/7------------|-------/7------------|-------/7------------|
|-(0)-0----6-5------0-|-(0)-0----6-5------0-|-(0)-0----6-5------0-|

| +E  E  E E E  E E E    E  E  E E E  E E E   +E  E  E E E  E E E
|-(x)-x--x-x-x--x-x-x-|--x--x--x-x-x--x-x-x-|-(x)-x--x-x-x--x-x-x-|
|--------x--------x---|--------x--------x---|--------x--------x---|
|---------------------|---------------------|---------------------|
|-(x)--------x--------|--x---------x------x-|-(x)--------x--------|

  +E  E  E E Q.     E   +E  E  E E Q.     E     +E  E E E   E   E   E   E
|---------------------|-----------------------|------------------------------|
|---------------------|-----------------------|------------------------------|
|-------/7------------|-------/7--------------|------------------------------|
|-(0)-0----6-5------0-|-(0)-0----6-5------3---|-(3)-0-2-0---2---3---2---0----|

|  E  E  E E E  E E E    E  E  E E E  E E S S    E  E E S S S S S S S S S S
|--x--x--x-x-x--x-x-x-|--x--x--x-x-x--x-x-x---|------------------------------|
|--------x--------x---|--------x--------x---x-|--x----------x-x-----x-x------|
|---------------------|-----------------------|-----x-x-x-x-----x-x-----x-x--|
|--x---------x--------|--x---------x----------|------------------------------|

  +E  E  E E E E E E   E E  E E E E E E   E E  E E E E E E   E E  E E E E E E
|--------------------|------------------|------------------|------------------|
|--------------------|------------------|------------------|------------------|
|-------/7-----------|-----/7-----------|-----/7-----------|-----/7-----------|
|-(0)-0----6-0-0-0-1-|-0-0----6-0-0-0-1-|-0-0----6-0-0-0-1-|-0-0----6-0-0-0-1-|

|  E  E  E E E E Q     E E  E E E E E E   E E  E E E E E E   E E  E E E E E E
|--------x-----------|------------------|------------------|---x----x---------|
|--------x-----x-x---|------x-------x-x-|------x-------x-x-|---x----x---x---x-|
|--x--x----x-x-x-x---|-x-x--x-x-x-x-x-x-|-x-x--x-x-x-x-x-x-|-x--------x-x-x-x-|
|--x-------x---x-----|-x----x---x---x---|-x----x---x---x---|-x----x---x---x---|

  E E  E E E E E E   E E  E E E E E E   E E  E E E E E E   E E  E E E E E E
|------------------|------------------|------------------|------------------|
|------------------|------------------|------------------|------------------|
|-----/7-----------|-----/7-----------|-----/7-----------|-----/7-----------|
|-0-0----6-0-0-0-1-|-0-0----6-0-0-0-1-|-0-0----6-0-0-0-1-|-0-0----6-0-0-0-1-|

| E E  Q   E E E E   Q    E E E E E E   E E  E E E E E E   E E  Q   E E E E
|------------------|------x-----------|------------------|------x-----------|
|------x-------x-x-|------x---------x-|-x-x--x-x-x-x-x-x-|------x-----x---x-|
|-x-x------x-x-x---|----------x-x-x-x-|-x-x--x-x-x-x-x-x-|-x-x------x-x-x-x-|
|-x--------x---x---|-x------x-x---x---|------------------|-x--------x---x---|

  E E  E E E E E E   E E  E E E E E E   E E  E E E E E E   E E  E E E E E E
|------------------|------------------|------------------|------------------|
|------------------|------------------|------------------|------------------|
|-----/7-----------|-----/7-----------|-----/7-----------|-----/7-----------|
|-0-0----0-0-0-0-0-|-0-0----0-0-0-0-0-|-0-0----0-0-0-0-0-|-0-0----0-0-0-0-0-|

| E E  Q   E E E E   E E  Q   E E E E   E E  E E E E E E   E E  E E E E E E
|------x-----------|------x-----------|--------x---x---x-|------------------|
|------x-----x---x-|------x-----x---x-|--------x---x---x-|------x-------x-x-|
|-x-x------x-x-x-x-|-x-x------x-x-x-x-|-x-x--x-----------|-x-x--x-x-x-x-x-x-|
|-x--------x---x---|-x--------x---x---|-x----x---x---x---|-x----x---x---x---|

  E E  E E E E E E   E E  E E E E E E
|------------------|------------------|
|------------------|------------------|
|-----/7-----------|-----/7-----------|
|-0-0----0-0-0-0-0-|-0-0----0-0-0-0-0-|

| E E  Q   E E E E   E E  Q   E E E E
|------x-----x---x-|------x-----------|
|------x-----x---x-|------x---------x-|
|-x-x--------------|-x-x------x-x-x-x-|
|-x--------x---x---|-x--------x---x---|

  E E  E E E E E E   E E  E E E E E E
|------------------|-------------------------|
|------------------|-------------------------|
|-----/7-----------|-----/7------------------|
|-0-0----0-0-0-0-0-|-0-0----0-0-0-0-0--------|

| E E  E E E E E E   E E  E E E S S S S S S
|---x----x---------|-------------------------|
|---x----x-------x-|---x----x---x-x----------|
|----------x-x-x-x-|-x-x--x-x-x-----x-x-x-x--|
|-x----x---x---x---|-x----x---x--------------|

  E E  E E E E E E   E E  E E E E E E   E E  E E E E E E   E E  E E E E E E
|------------------|------------------|------------------|------------------*|
|------------------|------------------|------------------|------------------*|
|-----/7-----------|-----/7-----------|-----/7-----------|-----/7-----------*|
|-0-0----0-0-0-0-0-|-0-0----0-0-0-0-0-|-0-0----0-0-0-0-0-|-0-0----0-0-0-0-0-*|

| E E  Q   E E E E   E E  E E E E E E   E E  E E E E E E   E E  E E E E E E
|------x-----------|------------------|------------------|------------------*|
|------x-------x-x-|------x-------x-x-|------x-------x-x-|------x-------x-x-*|
|-x-x------x-x-x-x-|-x-x--x-x-x-x-x-x-|-x-x--x-x-x-x-x-x-|-x-x--x-x-x-x-x-x-*|
|-x--------x---x---|-x----x---x---x---|-x----x---x---x---|-x----x---x---x---*|

***************************************************************************************

***************************************************************************************
						
# Artist Title Tabdesignator