Led Zeppelin

Trampled Under Foot


							
#---------------------------------- NOTE---------------------------------#

#------------------------------------------------------------------------------##

Gtr I (E A D G) - 'Bass'
Gtr II (E A D G) - 'Clavinet (high) arranged for bass'
Gtr III (E A D G) - 'Clavinet (low) arranged for bass'
 Intro
  Moderately Q=110
 4/4

|----------------------------|
|----------------------------|
|----------------------------|
|----------------------------|

| E e e e E.     S +S  S S S
|---------7------7-(7)-------|
|---5---5-7--8---5-(5)-------|
|-----8----------------8-5---|
|----------------------------|

| H       S  E   S  Q
| e e e e e    e    e    e
|----------------------------|
|---5---5------5---------5---|
|----------------------------|
|-3---3---3---------3--------|

                                 1st & 7th Verses
  W                               E E E E E    S S  E    E
|------------------------------||----------------------------|
|------------------------------||----------------------------|
|------------------------------||----------------------------|
|------------------------------||-3---3---3----3-3--3--------|

| E e e e E.     S +S  a S S S    E e e e E.     S +S  S S S
|---------7------7-(7)-7s5-----||---------7------7-(7)-------|
|---5---5-7--8-------------8-8-||---5---5-7--8---5-(5)-------|
|-----8----------8-(8)---8---8-||-----8----------------8-5---|
|------------------------------||----------------------------|

| H       S  E   S +S    E   S    H       S  E   S  Q
| e e e e e    e    e      e      e e e e e    e    e    e
|------------------------------||----------------------------|
|---5---5------5-----------5---||---5---5------5---------5---|
|------------------------------||----------------------------|
|-3---3---3---------3----------||-3---3---3---------3--------|

  E E E E E    S S  E    E
|----------------------------|
|----------------------------|
|----------------------------|
|-3---3---3----3-3--3--------|

| E e e e E.     S +S  S S S
|---------7------7-(7)-------|
|---5---5-7--8---5-(5)-------|
|-----8----------------8-5---|
|----------------------------|

| H       S  E   S  Q
| e e e e e    e    e    e
|----------------------------|
|---5---5------5---------5---|
|----------------------------|
|-3---3---3---------3--------|

  E E E E E    S S  E    E     E E E E E    S S  E    E
|----------------------------|----------------------------|
|----------------------------|----------------------------|
|----------------------------|----------------------------|
|-3---3---3----3-3--3--------|-3---3---3----3-3--3--------|

| E e e e E.     S +S  S S S   E e e e E.     S +S  S S S
|---------7------7-(7)-------|---------7------7-(7)-------|
|---5---5-7--8---5-(5)-------|---5---5-7--8---5-(5)-------|
|-----8----------------8-5---|-----8----------------8-5---|
|----------------------------|----------------------------|

| H       S  E   S  Q          H       S  E   S  Q
| e e e e e    e    e    e     e e e e e    e    e    e
|----------------------------|----------------------------|
|---5---5------5---------5---|---5---5------5---------5---|
|----------------------------|----------------------------|
|-3---3---3---------3--------|-3---3---3---------3--------|

  E E E E E    S S  E    E     E E E E E    S S  E    E     H       Q.   E
|----------------------------|----------------------------|----------------|
|----------------------------|----------------------------|----------------|
|----------------------------|----------------------------|-1-------3------|
|-3---3---3----3-3--3--------|-3---3---3----3-3--3--------|--------------3-|

| E e e e E.     S +S  S S S   E e e e E.     S +S  S S S   H       H
|---------7------7-(7)-------|---------7------7-(7)-------|-7-------9------|
|---5---5-7--8---5-(5)-------|---5---5-7--8---5-(5)-------|-8------10------|
|-----8----------------8-5---|-----8----------------8-5---|-8------10------|
|----------------------------|----------------------------|----------------|

| H       S  E   S  Q          H       S  E   S  Q
| e e e e e    e    e    e     e e e e e    e    e    e     Q.   E  Q.   E
|----------------------------|----------------------------|----------------|
|---5---5------5---------5---|---5---5------5---------5---|----------------|
|----------------------------|----------------------------|-1----1--3----3-|
|-3---3---3---------3--------|-3---3---3---------3--------|----------------|

  E E E E E    E    E    E     E E E E E    E    E    E
|----------------------------|----------------------------|
|----------------------------|----------------------------|
|----------------------------|----------------------------|
|-3---3---3---------3--------|-3---3---3---------3--------|

| E e e e E.     S +S  S S S   E e e e E.     S +S  S S S
|---------7------7-(7)-------|---------7------7-(7)-------|
|---5---5-7--8---5-(5)-------|---5---5-7--8---5-(5)-------|
|-----8----------------8-5---|-----8----------------8-5---|
|----------------------------|----------------------------|

| H       S  E   S  Q          H       S  E   S  Q
| e e e e e    e    e    e     e e e e e    e    e    e
|----------------------------|----------------------------|
|---5---5------5---------5---|---5---5------5---------5---|
|----------------------------|----------------------------|
|-3---3---3---------3--------|-3---3---3---------3--------|

   2nd, 3rd, 8th & 9th Verses
    E E E E E    S S  E    E
||-----------------------------|
||o----------------------------|
||o----------------------------|
||--3---3---3----3-3--3--------|

|   E e e e E.     S +S  S S S
||----------7------7-(7)-------|
||o---5---5-7--8---5-(5)-------|
||o-----8----------------8-5---|
||-----------------------------|

|   H       S  E   S  Q
|   e e e e e    e    e    e
||-----------------------------|
||o---5---5------5---------5---|
||o----------------------------|
||--3---3---3---------3--------|

  E E E E E    S S  E    E
|----------------------------|
|----------------------------|
|----------------------------|
|-3---3---3----3-3--3--------|

| E e e e E.     S +S  S S S
|---------7------7-(7)-------|
|---5---5-7--8---5-(5)-------|
|-----8----------------8-5---|
|----------------------------|

| H       S  E   S  Q
| e e e e e    e    e    e
|----------------------------|
|---5---5------5---------5---|
|----------------------------|
|-3---3---3---------3--------|

  E E E E E    S S  E    E     E E E E E    S S  E    E
|----------------------------|----------------------------|
|----------------------------|----------------------------|
|----------------------------|----------------------------|
|-3---3---3----3-3--3--------|-3---3---3----3-3--3--------|

| E e e e E.     S +S  S S S   E e e e E.     S +S  S S S
|---------7------7-(7)-------|---------7------7-(7)-------|
|---5---5-7--8---5-(5)-------|---5---5-7--8---5-(5)-------|
|-----8----------------8-5---|-----8----------------8-5---|
|----------------------------|----------------------------|

| H       S  E   S  Q          H       S  E   S  Q
| e e e e e    e    e    e     e e e e e    e    e    e
|----------------------------|----------------------------|
|---5---5------5---------5---|---5---5------5---------5---|
|----------------------------|----------------------------|
|-3---3---3---------3--------|-3---3---3---------3--------|

  E E E E E    S S  E    E     E E E E E    S S  E    E     H       H
|----------------------------|----------------------------|----------------|
|----------------------------|----------------------------|----------------|
|----------------------------|----------------------------|-1-------3------|
|-3---3---3----3-3--3--------|-3---3---3----3-3--3--------|----------------|

| E e e e E.     S +S  S S S   E e e e E.     S +S  S S S   H       H
|---------7------7-(7)-------|---------7------7-(7)-------|-7-------9------|
|---5---5-7--8---5-(5)-------|---5---5-7--8---5-(5)-------|-8------10------|
|-----8----------------8-5---|-----8----------------8-5---|-8------10------|
|----------------------------|----------------------------|----------------|

| H       S  E   S  Q          H       S  E   S  Q
| e e e e e    e    e    e     e e e e e    e    e    e     Q.   E  Q.   E
|----------------------------|----------------------------|----------------|
|---5---5------5---------5---|---5---5------5---------5---|----------------|
|----------------------------|----------------------------|-1----1--3----3-|
|-3---3---3---------3--------|-3---3---3---------3--------|----------------|

  E E E E E    E    E    E
|----------------------------|
|----------------------------|
|----------------------------|
|-3---3---3---------3--------|

| E e e e E.     S +S  S S S
|---------7------7-(7)-------|
|---5---5-7--8---5-(5)-------|
|-----8----------------8-5---|
|----------------------------|

| H       S  E   S  Q
| e e e e e    e    e    e
|----------------------------|
|---5---5------5---------5---|
|----------------------------|
|-3---3---3---------3--------|

                                             To Coda
  E E E E E    E    E    E        H    E  Q         E
|-----------------------------||----------------------|
|----------------------------o||--1----3--3-----------|
|----------------------------o||----------------------|
|-3---3---3---------3---------||--------------------1-|

| E e e e E.     S +S  S S S      H    H
|---------7------7-(7)--------||--8----8--------------|
|---5---5-7--8---5-(5)-------o||--8----7--------------|
|-----8----------------8-5---o||-10----8--------------|
|-----------------------------||----------------------|

| H       S  E   S  Q
| e e e e e    e    e    e        H    E.   S +S  S E
|-----------------------------||----------------------|
|---5---5------5---------5---o||--2----3----3-(3)-3-3-|
|----------------------------o||----------------------|
|-3---3---3---------3---------||----------------------|

  E E E E E    E    E    E     E E E E E    E    E      E
|----------------------------|------------------------------||
|----------------------------|------------------------------||
|----------------------------|------------------------------||
|-3---3---3---------3--------|-3---3---3---------3----------||

| E e e e E.     S +S  S S S   E e e e E.     S +S  a S S S
|---------7------7-(7)-------|---------7------7-(7)-7s5-----||
|---5---5-7--8---5-(5)-------|---5---5-7--8-------------8-8-||
|-----8----------------8-5---|-----8----------8-(8)---8---8-||
|----------------------------|------------------------------||

| H       S  E   S  Q          H       S  E   S +S    E   S
| e e e e e    e    e    e     e e e e e    e    e      e
|----------------------------|------------------------------||
|---5---5------5---------5---|---5---5------5-----------5---||
|----------------------------|------------------------------||
|-3---3---3---------3--------|-3---3---3---------3----------||

 4th Verse
  E E E E E    S S  E    E
|------------------------------|
|------------------------------|
|------------------------------|
|-3---3---3----3-3--3----------|

| E e e e E.     S +S  S S S
|---------7------7-(7)---------|
|---5---5-7--8---5-(5)---------|
|-----8----------------8-5-----|
|------------------------------|

| H       S  E   S  Q
| e e e e e    e    e    e
|------------------------------|
|---5---5------5---------5-----|
|------------------------------|
|-3---3---3---------3----------|

  E E E E E    S S  E    E
|----------------------------|
|----------------------------|
|----------------------------|
|-3---3---3----3-3--3--------|

| E e e e E.     S +S  S S S
|---------7------7-(7)-------|
|---5---5-7--8---5-(5)-------|
|-----8----------------8-5---|
|----------------------------|

| H       S  E   S  Q
| e e e e e    e    e    e
|----------------------------|
|---5---5------5---------5---|
|----------------------------|
|-3---3---3---------3--------|

  E E E E E    S S  E    E     E E E E E    S S  E    E
|----------------------------|----------------------------|
|----------------------------|----------------------------|
|----------------------------|----------------------------|
|-3---3---3----3-3--3--------|-3---3---3----3-3--3--------|

| E e e e E.     S +S  S S S   E e e e E.     S +S  S S S
|---------7------7-(7)-------|---------7------7-(7)-------|
|---5---5-7--8---5-(5)-------|---5---5-7--8---5-(5)-------|
|-----8----------------8-5---|-----8----------------8-5---|
|----------------------------|----------------------------|

| H       S  E   S  Q          H       S  E   S  Q
| e e e e e    e    e    e     e e e e e    e    e    e
|----------------------------|----------------------------|
|---5---5------5---------5---|---5---5------5---------5---|
|----------------------------|----------------------------|
|-3---3---3---------3--------|-3---3---3---------3--------|

  E E E E E    S S  E    E     E E E E E    S S  E    E     H       H
|----------------------------|----------------------------|----------------|
|----------------------------|----------------------------|----------------|
|----------------------------|----------------------------|-1-------3------|
|-3---3---3----3-3--3--------|-3---3---3----3-3--3--------|----------------|

| E e e e E.     S +S  S S S   E e e e E.     S +S  S S S   H       H
|---------7------7-(7)-------|---------7------7-(7)-------|-7-------9------|
|---5---5-7--8---5-(5)-------|---5---5-7--8---5-(5)-------|-8------10------|
|-----8----------------8-5---|-----8----------------8-5---|-8------10------|
|----------------------------|----------------------------|----------------|

| H       S  E   S  Q          H       S  E   S  Q
| e e e e e    e    e    e     e e e e e    e    e    e     Q.   E  Q.   E
|----------------------------|----------------------------|----------------|
|---5---5------5---------5---|---5---5------5---------5---|----------------|
|----------------------------|----------------------------|-1----1--3----3-|
|-3---3---3---------3--------|-3---3---3---------3--------|----------------|

  E E E E E    E    E    E
|----------------------------|
|----------------------------|
|----------------------------|
|-3---3---3---------3--------|

| E e e e E.     S +S  S S S
|---------7------7-(7)-------|
|---5---5-7--8---5-(5)-------|
|-----8----------------8-5---|
|----------------------------|

| H       S  E   S  Q
| e e e e e    e    e    e
|----------------------------|
|---5---5------5---------5---|
|----------------------------|
|-3---3---3---------3--------|

                               5th Verse
  E E E E E    E    E    E      E E E E E    S S  E    E
|----------------------------||----------------------------|
|----------------------------||----------------------------|
|----------------------------||----------------------------|
|-3---3---3---------3--------||-3---3---3----3-3--3--------|

| E e e e E.     S +S  S S S    E e e e E.     S +S  S S S
|---------7------7-(7)-------||---------7------7-(7)-------|
|---5---5-7--8---5-(5)-------||---5---5-7--8---5-(5)-------|
|-----8----------------8-5---||-----8----------------8-5---|
|----------------------------||----------------------------|

| H       S  E   S  Q           H       S  E   S  Q
| e e e e e    e    e    e      e e e e e    e    e    e
|----------------------------||----------------------------|
|---5---5------5---------5---||---5---5------5---------5---|
|----------------------------||----------------------------|
|-3---3---3---------3--------||-3---3---3---------3--------|

  E E E E E    S S  E    E
|----------------------------|
|----------------------------|
|----------------------------|
|-3---3---3----3-3--3--------|

| E e e e E.     S +S  S S S
|---------7------7-(7)-------|
|---5---5-7--8---5-(5)-------|
|-----8----------------8-5---|
|----------------------------|

| H       S  E   S  Q
| e e e e e    e    e    e
|----------------------------|
|---5---5------5---------5---|
|----------------------------|
|-3---3---3---------3--------|

  E E E E E    S S  E    E     E E E E E    E    E    E
|----------------------------|----------------------------|
|----------------------------|----------------------------|
|----------------------------|----------------------------|
|-3---3---3----3-3--3--------|-3---3---3---------3--------|

| E e e e E.     S +S  S S S   E e e e E.     S +S  S S S
|---------7------7-(7)-------|---------7------7-(7)-------|
|---5---5-7--8---5-(5)-------|---5---5-7--8---5-(5)-------|
|-----8----------------8-5---|-----8----------------8-5---|
|----------------------------|----------------------------|

| H       S  E   S  Q          H       S  E   S  Q
| e e e e e    e    e    e     e e e e e    e    e    e
|----------------------------|----------------------------|
|---5---5------5---------5---|---5---5------5---------5---|
|----------------------------|----------------------------|
|-3---3---3---------3--------|-3---3---3---------3--------|

  E E E E E    S S  E    E     E E E E E    S S  E    E     H       H
|----------------------------|----------------------------|----------------|
|----------------------------|----------------------------|----------------|
|----------------------------|----------------------------|-1-------3------|
|-3---3---3----3-3--3--------|-3---3---3----3-3--3--------|----------------|

| E e e e E.     S +S  S S S   E e e e E.     S +S  S S S   H       H
|---------7------7-(7)-------|---------7------7-(7)-------|-7-------9------|
|---5---5-7--8---5-(5)-------|---5---5-7--8---5-(5)-------|-8------10------|
|-----8----------------8-5---|-----8----------------8-5---|-8------10------|
|----------------------------|----------------------------|----------------|

| H       S  E   S  Q          H       S  E   S  Q
| e e e e e    e    e    e     e e e e e    e    e    e     Q.   E  Q.   E
|----------------------------|----------------------------|----------------|
|---5---5------5---------5---|---5---5------5---------5---|----------------|
|----------------------------|----------------------------|-1----1--3----3-|
|-3---3---3---------3--------|-3---3---3---------3--------|----------------|

  E E E E E    E    E    E     E E E E E    E    E      E
|----------------------------|------------------------------||
|----------------------------|------------------------------||
|----------------------------|------------------------------||
|-3---3---3---------3--------|-3---3---3---------3----------||

| E e e e E.     S +S  S S S   E e e e E.     S +S  a S S S
|---------7------7-(7)-------|---------7------7-(7)-7s5-----||
|---5---5-7--8---5-(5)-------|---5---5-7--8-------------8-8-||
|-----8----------------8-5---|-----8----------8-(8)---8---8-||
|----------------------------|------------------------------||

| H       S  E   S  Q          H       S  E   S +S    E   S
| e e e e e    e    e    e     e e e e e    e    e      e
|----------------------------|------------------------------||
|---5---5------5---------5---|---5---5------5-----------5---||
|----------------------------|------------------------------||
|-3---3---3---------3--------|-3---3---3---------3----------||

 6th Verse
  E E E E E    E    E    E
|------------------------------|
|------------------------------|
|------------------------------|
|-3---3---3---------3----------|

| E e e e E.     S +S  S S S
|---------7------7-(7)---------|
|---5---5-7--8---5-(5)---------|
|-----8----------------8-5-----|
|------------------------------|

| H       S  E   S  Q
| e e e e e    e    e    e
|------------------------------|
|---5---5------5---------5-----|
|------------------------------|
|-3---3---3---------3----------|

  E E E E E    E    E    E
|----------------------------|
|----------------------------|
|----------------------------|
|-3---3---3---------3--------|

| E e e e E.     S +S  S S S
|---------7------7-(7)-------|
|---5---5-7--8---5-(5)-------|
|-----8----------------8-5---|
|----------------------------|

| H       S  E   S  Q
| e e e e e    e    e    e
|----------------------------|
|---5---5------5---------5---|
|----------------------------|
|-3---3---3---------3--------|

  E E E E E    E    E    E     E E E E E    E    E    E
|----------------------------|----------------------------|
|----------------------------|----------------------------|
|----------------------------|----------------------------|
|-3---3---3---------3--------|-3---3---3---------3--------|

| E e e e E.     S +S  S S S   E e e e E.     S +S  S S S
|---------7------7-(7)-------|---------7------7-(7)-------|
|---5---5-7--8---5-(5)-------|---5---5-7--8---5-(5)-------|
|-----8----------------8-5---|-----8----------------8-5---|
|----------------------------|----------------------------|

| H       S  E   S  Q          H       S  E   S  Q
| e e e e e    e    e    e     e e e e e    e    e    e
|----------------------------|----------------------------|
|---5---5------5---------5---|---5---5------5---------5---|
|----------------------------|----------------------------|
|-3---3---3---------3--------|-3---3---3---------3--------|

  E E E E E    E    E    E     E E E E E    E    E    E     H      H
|----------------------------|----------------------------|------------------|
|----------------------------|----------------------------|------------------|
|----------------------------|----------------------------|-1------3---------|
|-3---3---3---------3--------|-3---3---3---------3--------|------------------|

| E e e e E.     S +S  S S S   E e e e E.     S +S  S S S   H      H
|---------7------7-(7)-------|---------7------7-(7)-------|-7------9---------|
|---5---5-7--8---5-(5)-------|---5---5-7--8---5-(5)-------|-8-----10---------|
|-----8----------------8-5---|-----8----------------8-5---|-8-----10---------|
|----------------------------|----------------------------|------------------|

| H       S  E   S  Q          H       S  E   S  Q
| e e e e e    e    e    e     e e e e e    e    e    e     Q  Q   Q  E S S
|----------------------------|----------------------------|------------------|
|---5---5------5---------5---|---5---5------5---------5---|-------------0-2--|
|----------------------------|----------------------------|-1--1---3--3------|
|-3---3---3---------3--------|-3---3---3---------3--------|------------------|

   H    E  Q         E   E E E E E    E    E    E
|----------------------|----------------------------|
|--1----3--3-----------|----------------------------|
|----------------------|----------------------------|
|--------------------1-|-3---3---3---------3--------|

|  H    H                E e e e E.     S +S  S S S
|--8----8--------------|---------7------7-(7)-------|
|--8----7--------------|---5---5-7--8---5-(5)-------|
|-10----8--------------|-----8----------------8-5---|
|----------------------|----------------------------|

|                        H       S  E   S  Q
|  H    E.   S +S  S E   e e e e e    e    e    e
|----------------------|----------------------------|
|--2----3----3-(3)-3-3-|---5---5------5---------5---|
|----------------------|----------------------------|
|----------------------|-3---3---3---------3--------|

  E E E E E    E    E    E
|----------------------------|
|----------------------------|
|----------------------------|
|-3---3---3---------3--------|

| E e e e E.     S +S  S S S
|---------7------7-(7)-------|
|---5---5-7--8---5-(5)-------|
|-----8----------------8-5---|
|----------------------------|

| H       S  E   S  Q
| e e e e e    e    e    e
|----------------------------|
|---5---5------5---------5---|
|----------------------------|
|-3---3---3---------3--------|

  W          +H.      +S  S S S   W          +H.      E S S
|----------|--------------------|----------|----------------||
|----------|--------------2-3-4-|-5--------|-(5)------------||
|----------|--------------------|----------|----------------||
|-3--------|-(3)------(3)-------|----------|------------1-2-||

|-7--------|-(7)----------------|-7--------|-(7)------------||
|-5--------|-(5)----------------|-5--------|-(5)------------||
|----------|--------------------|----------|----------------||
|----------|--------------------|----------|----------------||

|----------|--------------------|----------|----------------||
|----------|--------------------|----------|----------------||
|----------|--------------------|----------|----------------||
|-3--------|-(3)----------------|-3--------|-(3)------------||

   Guitar and Elec. Piano Solo
    E E E E E    S S  E    E     E E E E E    S S  E    E   11x
||-----------------------------|-----------------------------||
||o----------------------------|----------------------------o||
||o----------------------------|----------------------------o||
||--3---3---3----3-3--3--------|-3---3---3----3-3--3---------||

|   E e e e E.     S +S  S S S   E e e e E.     S +S  S S S 11x
||----------7------7-(7)-------|---------7------7-(7)--------||
||o---5---5-7--8---5-(5)-------|---5---5-7--8---5-(5)-------o||
||o-----8----------------8-5---|-----8----------------8-5---o||
||-----------------------------|-----------------------------||

|   H       S  E   S  Q          H       S  E   S  Q
|   e e e e e    e    e    e     e e e e e    e    e    e   11x
||-----------------------------|-----------------------------||
||o---5---5------5---------5---|---5---5------5---------5---o||
||o----------------------------|----------------------------o||
||--3---3---3---------3--------|-3---3---3---------3---------||

  W          +H.      +E  S S   W
|----------|------------------|------|
|----------|----------------3-|-5----|
|----------|--------------5---|------|
|-3--------|-(3)------(3)-----|------|

|-7--------|-(7)--------------|-7----|
|-5--------|-(5)--------------|-5----|
|----------|------------------|------|
|----------|------------------|------|

|----------|------------------|------|
|----------|------------------|------|
|----------|------------------|------|
|-3--------|-(3)--------------|-3----|

                                                              D.S. al Coda
  +H     +E. S Q    E E E E E    E    E    E     E E E E E    E    E    E
|-----------------|----------------------------|----------------------------||
|-(5)----(5)-3-5--|----------------------------|----------------------------||
|-----------------|----------------------------|----------------------------||
|-----------------|-3---3---3---------3--------|-3---3---3---------3--------||

| +W                E e e e E.     S +S  S S S   E e e e E.     S +S  S S S
|-(7)-------------|---------7------7-(7)-------|---------7------7-(7)-------||
|-(5)-------------|---5---5-7--8---5-(5)-------|---5---5-7--8---5-(5)-------||
|-----------------|-----8----------------8-5---|-----8----------------8-5---||
|-----------------|----------------------------|----------------------------||

|                   H       S  E   S  Q          H       S  E   S  Q
| +W                e e e e e    e    e    e     e e e e e    e    e    e
|-----------------|----------------------------|----------------------------||
|-----------------|---5---5------5---------5---|---5---5------5---------5---||
|-----------------|----------------------------|----------------------------||
|-(3)-------------|-3---3---3---------3--------|-3---3---3---------3--------||

  E E E E E    E    E    E     E E E E E    E    E    E
|----------------------------|----------------------------|
|----------------------------|----------------------------|
|----------------------------|----------------------------|
|-3---3---3---------3--------|-3---3---3---------3--------|

| E e e e E.     S +S  S S S   E e e e E.     S +S  S S S
|---------7------7-(7)-------|---------7------7-(7)-------|
|---5---5-7--8---5-(5)-------|---5---5-7--8---5-(5)-------|
|-----8----------------8-5---|-----8----------------8-5---|
|----------------------------|----------------------------|

| H       S  E   S  Q          H       S  E   S  Q
| e e e e e    e    e    e     e e e e e    e    e    e
|----------------------------|----------------------------|
|---5---5------5---------5---|---5---5------5---------5---|
|----------------------------|----------------------------|
|-3---3---3---------3--------|-3---3---3---------3--------|

   Outro
    E E E E E    E    E    E
||-----------------------------|
||o----------------------------|
||o----------------------------|
||--3---3---3---------3--------|

|   E e e e E.     S +S  S S S
||----------7------7-(7)-------|
||o---5---5-7--8---5-(5)-------|
||o-----8----------------8-5---|
||-----------------------------|

|   H       S  E   S  Q
|   e e e e e    e    e    e
||-----------------------------|
||o---5---5------5---------5---|
||o----------------------------|
||--3---3---3---------3--------|

  E E E E E    E    E    E     E E E E E    E    E    E
|----------------------------|----------------------------|
|----------------------------|----------------------------|
|----------------------------|----------------------------|
|-3---3---3---------3--------|-3---3---3---------3--------|

| E e e e E.     S +S  S S S   E e e e E.     S +S  S S S
|---------7------7-(7)-------|---------7------7-(7)-------|
|---5---5-7--8---5-(5)-------|---5---5-7--8---5-(5)-------|
|-----8----------------8-5---|-----8----------------8-5---|
|----------------------------|----------------------------|

| H       S  E   S  Q          H       S  E   S  Q
| e e e e e    e    e    e     e e e e e    e    e    e
|----------------------------|----------------------------|
|-5---5---5---------5--------|-5---5---5---------5--------|
|----------------------------|----------------------------|
|---3---3------3---------3---|---3---3------3---------3---|

  E E E E E    E    E    E    8x
|-----------------------------||
|----------------------------o||
|----------------------------o||
|-3---3---3---------3---------||

| E e e e E.     S +S  S S S  8x
|---------7------7-(7)--------||
|---5---5-7--8---5-(5)-------o||
|-----8----------------8-5---o||
|-----------------------------||

| H       S  E   S  Q
| e e e e e    e    e    e    8x
|-----------------------------||
|-5---5---5---------5--------o||
|----------------------------o||
|---3---3------3---------3----||

  E E E E E    E    E    E     E E E E E    E    E    E
|----------------------------|----------------------------|
|----------------------------|----------------------------|
|----------------------------|----------------------------|
|-3---3---3---------3--------|-3---3---3---------3--------|

| E e e e E.     S +S  S S S   E e e e E.     S +S  S S S
|---------7------7-(7)-------|---------7------7-(7)-------|
|---5---5-7--8---5-(5)-------|---5---5-7--8---5-(5)-------|
|-----8----------------8-5---|-----8----------------8-5---|
|----------------------------|----------------------------|

| H       S  E   S  Q          H       S  E   S  Q
| e e e e e    e    e    e     e e e e e    e    e    e
|----------------------------|----------------------------|
|-5---5---5---------5--------|-5---5---5---------5--------|
|----------------------------|----------------------------|
|---3---3------3---------3---|---3---3------3---------3---|

  E E E E E    E    E    E     W
|----------------------------|------*|
|----------------------------|------*|
|----------------------------|------*|
|-3---3---3---------3--------|-3----*|

| E e e e E.     S +S  S S S   W
|---------7------7-(7)-------|-7----*|
|---5---5-7--8---5-(5)-------|-5----*|
|-----8----------------8-5---|------*|
|----------------------------|------*|

| H       S  E   S  Q
| e e e e e    e    e    e     W
|----------------------------|------*|
|-5---5---5---------5--------|------*|
|----------------------------|------*|
|---3---3------3---------3---|-3----*|

Duration Legend
---------------

W - whole; H - half; Q - quarter; E - 8th; S - 16th; T - 32nd; X - 64th; a - acciaccatura
+ - note tied to previous; . - note dotted; .. - note double dotted
Uncapitalized letters represent notes that are staccato (1/2 duration)
duration for.  Duration letters with no t number below them represent rests.  Multi-
bar rests are notated in the form Wxn, where n is the number of bars to rest for.  Low
----------------

 h   - hammer-on
 b   - bend
 pb  - pre-bend
 r   - bend release (if no number after the r, then release immediately)
 s   - legato slide
 S   - shift slide
  - natural harmonic
n  - artificial harmonic
n(n) - tapped harmonic
 ~   - vibrato
 T   - tap
 PM  - palm muting
\n/  - tremolo bar dip; n = amount to dip
 =   - hold bend; also acts as connecting device for hammers/pulls
 x   - on rhythm slash represents muted slash
Misc Legend
-----------

||o - repeat start

 &  - Coda
Tempo markers -  = BPM(8/16=s8/s16), where s8 = swing 8ths, s16 = swing 16ths
***************************************************************************************

***************************************************************************************
						
# Artist Title Tabdesignator