Jorbim Antonio Carlos

Desafinado


							
Tuning : E A D G 	Time Signature: 4/4
 |       |       |       |        |       |       |       |
|----------------5---------------|------------5-------5-----------|
|3-----------3-------------------|3-----------------------3-------|
|--------------------------------|--------------------------------|
|--------------------------------|--------------------------------|

 |       |       |       |        |       |       |       |
|--------------------------------|--------------------------------|
|----------------0---------------|0---0-------------------0-------|
|--------------------------------|--------------------------------|
|3-----------3-------------------|------------3-------3-----------|

 |       |       |       |        |       |       |       |
|--------------------------------|------------5-------------------|
|--------------------------------|--------------------------------|
|--------------------0---1-------|3---------------3-----------3---|
|3-----------3---------------3---|--------------------------------|

 |       |       |       |        |       |       |       |
|----------------2---------------|----0-------7-------2-----------|
|--------------------2-----------|0-----------------------0-------|
|0-----------0-----------0---0---|--------------------------------|
|--------------------------------|--------------------------------|

 |       |       |       |        |       |       |       |
|--------------------------------|------------4-------------------|
|----------------0---------------|2---------------2---2-----------|
|--------------------------------|------------------------0-------|
|3-----------3-------------------|--------------------------------|

 |       |       |       |        |       |       |       |
|--------------------------------|--------------------------------|
|0-----------0-------------------|0---2-----------0---0-----------|
|----------------0---------------|------------0-----------0-------|
|--------------------------------|--------------------------------|

 |       |       |       |        |       |       |       |
|--------------------------------|------------0-------------------|
|--------------------------------|--------------------------------|
|--------------------0---1-------|--------------------------------|
|3-----------3---------------3---|3---------------3-----------3---|

 |       |       |       |        |       |       |       |
|----------------11--6-----------|----4-------11------6-----------|
|------------4-----------4---4---|4-----------------------4-------|
|--------------------------------|--------------------------------|
|2-------------------------------|--------------------------------|

 |       |       |       |        |       |       |       |
|----------------5---------------|------------5-------5-----------|
|3-----------3-------------------|3-----------------------3-------|
|--------------------------------|--------------------------------|
|--------------------------------|--------------------------------|

 |       |       |       |        |       |       |       |
|--------------------------------|--------------------------------|
|----------------0---------------|----0-------------------0-------|
|--------------------------------|--------------------------------|
|3-----------3-------------------|------------3-------3-----------|

 |       |       |       |        |       |       |       |
|--------------------------------|------------5-------------------|
|--------------------------------|--------------------------------|
|--------------------0---1-------|3---------------3-----------3---|
|3-----------3---------------3---|--------------------------------|

 |       |       |       |        |       |       |       |
|----------------2---------------|----0-------7-------2-----------|
|--------------------2-----------|0-----------------------0-------|
|0-----------0-----------0---0---|--------------------------------|
|--------------------------------|--------------------------------|

 |       |       |       |        |       |       |       |
|--------------------------------|--------------------------------|
|----------------0---------------|------------3-------3-----------|
|--------------------------------|1-----------------------1-------|
|3-----------3-------------------|--------------------------------|

 |       |       |       |        |       |       |       |
|--------------------------------|----4---------------------------|
|3-----------3-------------------|2-----------2-------2-----------|
|----------------3---------------|------------------------0-------|
|--------------------------------|--------------------------------|

 |       |       |       |        |       |       |       |
|--------------------------------|------------5-------------------|
|--------------------------------|--------------------------------|
|0-----------0-------2---3---0---|3---------------3-----------3---|
|--------------------------------|--------------------------------|

 |       |       |       |        |       |       |       |
|----------------4---0-----------|----2-------9-------4-----------|
|--------------------------------|2-----------------------2-------|
|2-----------2-----------2---2---|--------------------------------|
|--------------------------------|--------------------------------|

 |       |       |       |        |       |       |       |
|--------------------------------|--------------------------------|
|--------------------------------|--------------------------------|
|0-----------0-------------------|1-----------1-----------1-------|
|----------------0-----------0---|--------------------0-----------|

 |       |       |       |        |       |       |       |
|--------------------------------|--------------------------------|
|--------------------------------|2-----------2---2-----------2---|
|2-----------2---2-----------2---|--------------------------------|
|--------------------------------|--------------------------------|

 |       |       |       |        |       |       |       |
|--------------------------------|------------11------7-----------|
|----------------2---------------|4-----------------------4-------|
|0-----------0---------------0---|--------------------------------|
|--------------------------------|--------------------------------|

 |       |       |       |        |       |       |       |
|--------------------------------|--------------------------------|
|--------------------------------|2---2---2-----------------------|
|2-----------2---2-----------2---|--------------------------------|
|--------------------------------|--------------------------------|

 |       |       |       |        |       |       |       |
|--------------------------------|--------------------------------|
|--------------------------------|--------------------------------|
|3-----------3-------------------|4-----------4-----------4-------|
|----------------3-----------3---|--------------------3-----------|

 |       |       |       |        |       |       |       |
|--------------------------------|--------------------------------|
|0-----------0---0-----------0---|--------------------------------|
|--------------------------------|--------------------------------|
|--------------------------------|3-----------3---3-----------3---|

 |       |       |       |        |       |       |       |
|--------------------------------|------------7-------2-----------|
|----------------1---------------|0-----------------------0-------|
|--------------------------------|--------------------------------|
|3-----------3---------------3---|--------------------------------|

 |       |       |       |        |       |       |       |
|--------------------------------|--------------------------------|
|--------------------------------|--------------------------------|
|--------------------------------|3---3---3-----------------------|
|3-----------3---3-----------3---|--------------------------------|

 |       |       |       |        |       |       |       |
|----------------5---------------|------------5-------5-----------|
|------------3-------------------|3-----------------------3-------|
|--------------------------------|--------------------------------|
|1-------------------------------|--------------------------------|

 |       |       |       |        |       |       |       |
|0-------------------------------|--------------------------------|
|----------------0---------------|----0-------------------0-------|
|--------------------------------|--------------------------------|
|------------3-------------------|3-----------3-------3-----------|

 |       |       |       |        |       |       |       |
|--------------------------------|------------5-------------------|
|--------------------------------|--------------------------------|
|--------------------0---1-------|3---------------3-----------3---|
|3-----------3---------------3---|--------------------------------|

 |       |       |       |        |       |       |       |
|----------------2---------------|----0-------7-------2-----------|
|--------------------2-----------|0-----------------------0-------|
|0-----------0-----------0---0---|--------------------------------|
|--------------------------------|--------------------------------|

 |       |       |       |        |       |       |       |
|--------------------------------|--------------------------------|
|----------------0-----------0---|1-----------1-----------1-------|
|--------------------------------|--------------------1-----------|
|3-----------3-------------------|--------------------------------|

 |       |       |       |        |       |       |       |
|--------------------------------|--------------------------------|
|3-----------3---3-----------3---|--------------------------------|
|--------------------------------|--------------------------------|
|--------------------------------|4-----------4---4-----------4---|

 |       |       |       |        |       |       |       |
|--------------------------------|------------0-------------------|
|----------------0---------------|--------------------1-----------|
|--------------------------------|--------------------------------|
|3-----------3---------------3---|3-----------------------3-------|

 |       |       |       |        |       |       |       |
|--------------------------------|--------------------------------|
|--------------------------------|1---1---1-----------------------|
|1-----------1---1-----------1---|--------------------------------|
|--------------------------------|--------------------------------|

 |       |       |       |        |       |       |       |
|--------------------------------|--------------------------------|
|----------------0-----------0---|--------------------------------|
|--------------------------------|4-----------4-----------4-------|
|3-----------3-------------------|--------------------4-----------|

 |       |       |       |        |       |       |       |
|--------------------------------|--------------------------------|
|3-----------3---3-----------3---|--------------------------------|
|--------------------------------|3-----------3---3-----------3---|
|--------------------------------|--------------------------------|

 |       |       |       |        |       |       |       |
|----------------5---------------|------------5-------5-----------|
|3-----------3-------------------|3-----------------------3-------|
|--------------------------------|--------------------------------|
|--------------------------------|--------------------------------|

 |       |       |       |        |       |       |       |
|--------------------------------|--------------------------------|
|----------------0---------------|0---0-------------------0-------|
|--------------------------------|--------------------------------|
|3-----------3-------------------|------------3-------3-----------|

 |       |       |       |        |       |       |       |
|--------------------------------|------------5-------------------|
|--------------------------------|--------------------------------|
|--------------------0---1-------|3---------------3-----------3---|
|3-----------3---------------3---|--------------------------------|

 |       |       |       |        |       |       |       |
|----------------2---------------|----0-------7-------2-----------|
|--------------------2-----------|0-----------------------0-------|
|0-----------0-----------0---0---|--------------------------------|
|--------------------------------|--------------------------------|

 |       |       |       |        |       |       |       |
|--------------------------------|------------4-------------------|
|----------------0---------------|2---------------2---2-----------|
|--------------------------------|------------------------0-------|
|3-----------3-------------------|--------------------------------|

 |       |       |       |        |       |       |       |
|--------------------------------|--------------------------------|
|0-----------0-------------------|0---2-----------0---0-----------|
|----------------0---------------|------------0-----------0-------|
|--------------------------------|--------------------------------|

 |       |       |       |        |       |       |       |
|--------------------------------|------------0-------------------|
|--------------------------------|--------------------------------|
|--------------------0---1-------|--------------------------------|
|3-----------3---------------3---|3---------------3-----------3---|

 |       |       |       |        |       |       |       |
|----------------11--6-----------|----4-------11------6-----------|
|------------4-----------4---4---|4-----------------------4-------|
|--------------------------------|--------------------------------|
|2-------------------------------|--------------------------------|

 |       |       |       |        |       |       |       |
|----------------5---------------|------------5-------5-----------|
|3-----------3-------------------|3-----------------------3-------|
|--------------------------------|--------------------------------|
|--------------------------------|--------------------------------|

 |       |       |       |        |       |       |       |
|--------------------------------|--------------------------------|
|----------------0---------------|----0-------------------0-------|
|--------------------------------|--------------------------------|
|3-----------3-------------------|------------3-------3-----------|

 |       |       |       |        |       |       |       |
|--------------------------------|------------5-------------------|
|--------------------------------|--------------------------------|
|--------------------0---1-------|3---------------3-----------3---|
|3-----------3---------------3---|--------------------------------|

 |       |       |       |        |       |       |       |
|----------------2---------------|----0-------7-------2-----------|
|--------------------2-----------|0-----------------------0-------|
|0-----------0-----------0---0---|--------------------------------|
|--------------------------------|--------------------------------|

 |       |       |       |        |       |       |       |
|--------------------------------|--------------------------------|
|----------------0---------------|------------3-------3-----------|
|--------------------------------|1-----------------------1-------|
|3-----------3-------------------|--------------------------------|

 |       |       |       |        |       |       |       |
|--------------------------------|----4---------------------------|
|3-----------3-------------------|2-----------2-------2-----------|
|----------------3---------------|------------------------0-------|
|--------------------------------|--------------------------------|

 |       |       |       |        |       |       |       |
|--------------------------------|------------5-------------------|
|--------------------------------|--------------------------------|
|0-----------0-------2---3---0---|3---------------3-----------3---|
|--------------------------------|--------------------------------|

 |       |       |       |        |       |       |       |
|----------------4---0-----------|----2-------9-------4-----------|
|--------------------------------|2-----------------------2-------|
|2-----------2-----------2---2---|--------------------------------|
|--------------------------------|--------------------------------|

 |       |       |       |        |       |       |       |
|--------------------------------|--------------------------------|
|--------------------------------|--------------------------------|
|0-----------0-------------------|1-----------1-----------1-------|
|----------------0-----------0---|--------------------0-----------|

 |       |       |       |        |       |       |       |
|--------------------------------|--------------------------------|
|--------------------------------|2-----------2---2-----------2---|
|2-----------2---2-----------2---|--------------------------------|
|--------------------------------|--------------------------------|

 |       |       |       |        |       |       |       |
|--------------------------------|------------11------7-----------|
|----------------2---------------|4-----------------------4-------|
|0-----------0---------------0---|--------------------------------|
|--------------------------------|--------------------------------|

 |       |       |       |        |       |       |       |
|--------------------------------|--------------------------------|
|--------------------------------|2---2---2-----------------------|
|2-----------2---2-----------2---|--------------------------------|
|--------------------------------|--------------------------------|

 |       |       |       |        |       |       |       |
|--------------------------------|--------------------------------|
|--------------------------------|--------------------------------|
|3-----------3-------------------|4-----------4-----------4-------|
|----------------3-----------3---|--------------------3-----------|

 |       |       |       |        |       |       |       |
|--------------------------------|--------------------------------|
|0-----------0---0-----------0---|--------------------------------|
|--------------------------------|--------------------------------|
|--------------------------------|3-----------3---3-----------3---|

 |       |       |       |        |       |       |       |
|--------------------------------|------------7-------2-----------|
|----------------1---------------|0-----------------------0-------|
|--------------------------------|--------------------------------|
|3-----------3---------------3---|--------------------------------|

 |       |       |       |        |       |       |       |
|--------------------------------|--------------------------------|
|--------------------------------|--------------------------------|
|--------------------------------|3---3---3-----------------------|
|3-----------3---3-----------3---|--------------------------------|

 |       |       |       |        |       |       |       |
|----------------5---------------|------------5-------5-----------|
|------------3-------------------|3-----------------------3-------|
|--------------------------------|--------------------------------|
|1-------------------------------|--------------------------------|

 |       |       |       |        |       |       |       |
|0-------------------------------|--------------------------------|
|----------------0---------------|----0-------------------0-------|
|--------------------------------|--------------------------------|
|------------3-------------------|3-----------3-------3-----------|

 |       |       |       |        |       |       |       |
|--------------------------------|------------5-------------------|
|--------------------------------|--------------------------------|
|--------------------0---1-------|3---------------3-----------3---|
|3-----------3---------------3---|--------------------------------|

 |       |       |       |        |       |       |       |
|----------------2---------------|----0-------7-------2-----------|
|--------------------2-----------|0-----------------------0-------|
|0-----------0-----------0---0---|--------------------------------|
|--------------------------------|--------------------------------|

 |       |       |       |        |       |       |       |
|--------------------------------|--------------------------------|
|----------------0-----------0---|1-----------1-----------1-------|
|--------------------------------|--------------------1-----------|
|3-----------3-------------------|--------------------------------|

 |       |       |       |        |       |       |       |
|--------------------------------|--------------------------------|
|3-----------3---3-----------3---|--------------------------------|
|--------------------------------|--------------------------------|
|--------------------------------|4-----------4---4-----------4---|

 |       |       |       |        |       |       |       |
|--------------------------------|------------0-------------------|
|----------------0---------------|--------------------1-----------|
|--------------------------------|--------------------------------|
|3-----------3---------------3---|3-----------------------3-------|

 |       |       |       |        |       |       |       |
|--------------------------------|--------------------------------|
|--------------------------------|1---1---1-----------------------|
|1-----------1---1-----------1---|--------------------------------|
|--------------------------------|--------------------------------|

 |       |       |       |        |       |       |       |
|--------------------------------|--------------------------------|
|----------------0-----------0---|--------------------------------|
|--------------------------------|4-----------4-----------4-------|
|3-----------3-------------------|--------------------4-----------|

 |       |       |       |        |       |       |       |
|--------------------------------|--------------------------------|
|3-----------3---3-----------3---|--------------------------------|
|--------------------------------|3-----------3---3-----------3---|
|--------------------------------|--------------------------------|

 |       |       |       |        |       |       |       |
|----------------5---------------|------------5-------5-----------|
|3-----------3-------------------|3-----------------------3-------|
|--------------------------------|--------------------------------|
|--------------------------------|--------------------------------|

 |       |       |       |        |       |       |       |
|--------------------------------|--------------------------------|
|----------------0---------------|0---0-------------------0-------|
|--------------------------------|--------------------------------|
|3-----------3-------------------|------------3-------3-----------|

 |       |       |       |        |       |       |       |
|--------------------------------|------------5-------------------|
|--------------------------------|--------------------------------|
|--------------------0---1-------|3---------------3-----------3---|
|3-----------3---------------3---|--------------------------------|

 |       |       |       |        |       |       |       |
|----------------2---------------|----0-------7-------2-----------|
|--------------------2-----------|0-----------------------0-------|
|0-----------0-----------0---0---|--------------------------------|
|--------------------------------|--------------------------------|

 |       |       |       |        |       |       |       |
|--------------------------------|------------4-------------------|
|----------------0---------------|2---------------2---2-----------|
|--------------------------------|------------------------0-------|
|3-----------3-------------------|--------------------------------|

 |       |       |       |        |       |       |       |
|--------------------------------|--------------------------------|
|0-----------0-------------------|0---2-----------0---0-----------|
|----------------0---------------|------------0-----------0-------|
|--------------------------------|--------------------------------|

 |       |       |       |        |       |       |       |
|--------------------------------|------------0-------------------|
|--------------------------------|--------------------------------|
|--------------------0---1-------|--------------------------------|
|3-----------3---------------3---|3---------------3-----------3---|

 |       |       |       |        |       |       |       |
|----------------11--6-----------|----4-------11------6-----------|
|------------4-----------4---4---|4-----------------------4-------|
|--------------------------------|--------------------------------|
|2-------------------------------|--------------------------------|

 |       |       |       |        |       |       |       |
|----------------5---------------|------------5-------5-----------|
|3-----------3-------------------|3-----------------------3-------|
|--------------------------------|--------------------------------|
|--------------------------------|--------------------------------|

 |       |       |       |        |       |       |       |
|--------------------------------|--------------------------------|
|----------------0---------------|----0-------------------0-------|
|--------------------------------|--------------------------------|
|3-----------3-------------------|------------3-------3-----------|

 |       |       |       |        |       |       |       |
|--------------------------------|------------5-------------------|
|--------------------------------|--------------------------------|
|--------------------0---1-------|3---------------3-----------3---|
|3-----------3---------------3---|--------------------------------|

 |       |       |       |        |       |       |       |
|----------------2---------------|----0-------7-------2-----------|
|--------------------2-----------|0-----------------------0-------|
|0-----------0-----------0---0---|--------------------------------|
|--------------------------------|--------------------------------|

 |       |       |       |        |       |       |       |
|--------------------------------|--------------------------------|
|----------------0---------------|------------3-------3-----------|
|--------------------------------|1-----------------------1-------|
|3-----------3-------------------|--------------------------------|

 |       |       |       |        |       |       |       |
|--------------------------------|----4---------------------------|
|3-----------3-------------------|2-----------2-------2-----------|
|----------------3---------------|------------------------0-------|
|--------------------------------|--------------------------------|

 |       |       |       |        |       |       |       |
|--------------------------------|------------5-------------------|
|--------------------------------|--------------------------------|
|0-----------0-------2---3---0---|3---------------3-----------3---|
|--------------------------------|--------------------------------|

 |       |       |       |        |       |       |       |
|----------------4---0-----------|----2-------9-------4-----------|
|--------------------------------|2-----------------------2-------|
|2-----------2-----------2---2---|--------------------------------|
|--------------------------------|--------------------------------|

 |       |       |       |        |       |       |       |
|--------------------------------|--------------------------------|
|--------------------------------|--------------------------------|
|0-----------0-------------------|1-----------1-----------1-------|
|----------------0-----------0---|--------------------0-----------|

 |       |       |       |        |       |       |       |
|--------------------------------|--------------------------------|
|--------------------------------|2-----------2---2-----------2---|
|2-----------2---2-----------2---|--------------------------------|
|--------------------------------|--------------------------------|

 |       |       |       |        |       |       |       |
|--------------------------------|------------11------7-----------|
|----------------2---------------|4-----------------------4-------|
|0-----------0---------------0---|--------------------------------|
|--------------------------------|--------------------------------|

 |       |       |       |        |       |       |       |
|--------------------------------|--------------------------------|
|--------------------------------|2---2---2-----------------------|
|2-----------2---2-----------2---|--------------------------------|
|--------------------------------|--------------------------------|

 |       |       |       |        |       |       |       |
|--------------------------------|--------------------------------|
|--------------------------------|--------------------------------|
|3-----------3-------------------|4-----------4-----------4-------|
|----------------3-----------3---|--------------------3-----------|

 |       |       |       |        |       |       |       |
|--------------------------------|--------------------------------|
|0-----------0---0-----------0---|--------------------------------|
|--------------------------------|--------------------------------|
|--------------------------------|3-----------3---3-----------3---|

 |       |       |       |        |       |       |       |
|--------------------------------|------------7-------2-----------|
|----------------1---------------|0-----------------------0-------|
|--------------------------------|--------------------------------|
|3-----------3---------------3---|--------------------------------|

 |       |       |       |        |       |       |       |
|--------------------------------|--------------------------------|
|--------------------------------|--------------------------------|
|--------------------------------|3---3---3-----------------------|
|3-----------3---3-----------3---|--------------------------------|

 |       |       |       |        |       |       |       |
|----------------5---------------|------------5-------5-----------|
|------------3-------------------|3-----------------------3-------|
|--------------------------------|--------------------------------|
|1-------------------------------|--------------------------------|

 |       |       |       |        |       |       |       |
|0-------------------------------|--------------------------------|
|----------------0---------------|----0-------------------0-------|
|--------------------------------|--------------------------------|
|------------3-------------------|3-----------3-------3-----------|

 |       |       |       |        |       |       |       |
|--------------------------------|------------5-------------------|
|--------------------------------|--------------------------------|
|--------------------0---1-------|3---------------3-----------3---|
|3-----------3---------------3---|--------------------------------|

 |       |       |       |        |       |       |       |
|----------------2---------------|----0-------7-------2-----------|
|--------------------2-----------|0-----------------------0-------|
|0-----------0-----------0---0---|--------------------------------|
|--------------------------------|--------------------------------|

 |       |       |       |        |       |       |       |
|--------------------------------|--------------------------------|
|----------------0-----------0---|1-----------1-----------1-------|
|--------------------------------|--------------------1-----------|
|3-----------3-------------------|--------------------------------|

 |       |       |       |        |       |       |       |
|--------------------------------|--------------------------------|
|3-----------3---3-----------3---|--------------------------------|
|--------------------------------|--------------------------------|
|--------------------------------|4-----------4---4-----------4---|

 |       |       |       |        |       |       |       |
|--------------------------------|------------0-------------------|
|----------------0---------------|--------------------1-----------|
|--------------------------------|--------------------------------|
|3-----------3---------------3---|3-----------------------3-------|

 |       |       |       |        |       |       |       |
|--------------------------------|--------------------------------|
|--------------------------------|1---1---1-----------------------|
|1-----------1---1-----------1---|--------------------------------|
|--------------------------------|--------------------------------|

 |       |       |       |        |       |       |       |
|--------------------------------|--------------------------------|
|----------------0-----------0---|--------------------------------|
|--------------------------------|4-----------4-----------4-------|
|3-----------3-------------------|--------------------4-----------|

 |       |       |       |        |       |       |       |
|--------------------------------|--------------------------------|
|3-----------3---3-----------3---|--------------------------------|
|--------------------------------|3-----------3---3-----------3---|
|--------------------------------|--------------------------------|

 |       |       |       |        |       |       |       |
|----------------5---------------|------------5-------5-----------|
|3-----------3-------------------|3-----------------------3-------|
|--------------------------------|--------------------------------|
|--------------------------------|--------------------------------|

 |       |       |       |        |       |       |       |
|--------------------------------|--------------------------------|
|----------------0---------------|0---0-------------------0-------|
|--------------------------------|--------------------------------|
|3-----------3-------------------|------------3-------3-----------|

 |       |       |       |        |       |       |       |
|--------------------------------|------------5-------------------|
|--------------------------------|--------------------------------|
|--------------------0---1-------|3---------------3-----------3---|
|3-----------3---------------3---|--------------------------------|

 |       |       |       |        |       |       |       |
|----------------2---------------|----0-------7-------2-----------|
|--------------------2-----------|0-----------------------0-------|
|0-----------0-----------0---0---|--------------------------------|
|--------------------------------|--------------------------------|

 |       |       |       |        |       |       |       |
|--------------------------------|------------4-------------------|
|----------------0---------------|2---------------2---2-----------|
|--------------------------------|------------------------0-------|
|3-----------3-------------------|--------------------------------|

 |       |       |       |        |       |       |       |
|--------------------------------|--------------------------------|
|0-----------0-------------------|0---2-----------0---0-----------|
|----------------0---------------|------------0-----------0-------|
|--------------------------------|--------------------------------|

 |       |       |       |        |       |       |       |
|--------------------------------|------------0-------------------|
|--------------------------------|--------------------------------|
|--------------------0---1-------|--------------------------------|
|3-----------3---------------3---|3---------------3-----------3---|

 |       |       |       |        |       |       |       |
|----------------11--6-----------|----4-------11------6-----------|
|------------4-----------4---4---|4-----------------------4-------|
|--------------------------------|--------------------------------|
|2-------------------------------|--------------------------------|

 |       |       |       |        |       |       |       |
|----------------5---------------|------------5-------5-----------|
|3-----------3-------------------|3-----------------------3-------|
|--------------------------------|--------------------------------|
|--------------------------------|--------------------------------|

 |       |       |       |        |       |       |       |
|--------------------------------|--------------------------------|
|----------------0---------------|----0-------------------0-------|
|--------------------------------|--------------------------------|
|3-----------3-------------------|------------3-------3-----------|

 |       |       |       |        |       |       |       |
|--------------------------------|------------5-------------------|
|--------------------------------|--------------------------------|
|--------------------0---1-------|3---------------3-----------3---|
|3-----------3---------------3---|--------------------------------|

 |       |       |       |        |       |       |       |
|----------------2---------------|----0-------7-------2-----------|
|--------------------2-----------|0-----------------------0-------|
|0-----------0-----------0---0---|--------------------------------|
|--------------------------------|--------------------------------|

 |       |       |       |        |       |       |       |
|--------------------------------|--------------------------------|
|----------------0---------------|------------3-------3-----------|
|--------------------------------|1-----------------------1-------|
|3-----------3-------------------|--------------------------------|

 |       |       |       |        |       |       |       |
|--------------------------------|----4---------------------------|
|3-----------3-------------------|2-----------2-------2-----------|
|----------------3---------------|------------------------0-------|
|--------------------------------|--------------------------------|

 |       |       |       |        |       |       |       |
|--------------------------------|------------5-------------------|
|--------------------------------|--------------------------------|
|0-----------0-------2---3---0---|3---------------3-----------3---|
|--------------------------------|--------------------------------|

 |       |       |       |        |       |       |       |
|----------------4---0-----------|----2-------9-------4-----------|
|--------------------------------|2-----------------------2-------|
|2-----------2-----------2---2---|--------------------------------|
|--------------------------------|--------------------------------|

 |       |       |       |        |       |       |       |
|--------------------------------|--------------------------------|
|--------------------------------|--------------------------------|
|0-----------0-------------------|1-----------1-----------1-------|
|----------------0-----------0---|--------------------0-----------|

 |       |       |       |        |       |       |       |
|--------------------------------|--------------------------------|
|--------------------------------|2-----------2---2-----------2---|
|2-----------2---2-----------2---|--------------------------------|
|--------------------------------|--------------------------------|

 |       |       |       |        |       |       |       |
|--------------------------------|------------11------7-----------|
|----------------2---------------|4-----------------------4-------|
|0-----------0---------------0---|--------------------------------|
|--------------------------------|--------------------------------|

 |       |       |       |        |       |       |       |
|--------------------------------|--------------------------------|
|--------------------------------|2---2---2-----------------------|
|2-----------2---2-----------2---|--------------------------------|
|--------------------------------|--------------------------------|

 |       |       |       |        |       |       |       |
|--------------------------------|--------------------------------|
|--------------------------------|--------------------------------|
|3-----------3-------------------|4-----------4-----------4-------|
|----------------3-----------3---|--------------------3-----------|

 |       |       |       |        |       |       |       |
|--------------------------------|--------------------------------|
|0-----------0---0-----------0---|--------------------------------|
|--------------------------------|--------------------------------|
|--------------------------------|3-----------3---3-----------3---|

 |       |       |       |        |       |       |       |
|--------------------------------|------------7-------2-----------|
|----------------1---------------|0-----------------------0-------|
|--------------------------------|--------------------------------|
|3-----------3---------------3---|--------------------------------|

 |       |       |       |        |       |       |       |
|--------------------------------|--------------------------------|
|--------------------------------|--------------------------------|
|--------------------------------|3---3---3-----------------------|
|3-----------3---3-----------3---|--------------------------------|

 |       |       |       |        |       |       |       |
|----------------5---------------|------------5-------5-----------|
|------------3-------------------|3-----------------------3-------|
|--------------------------------|--------------------------------|
|1-------------------------------|--------------------------------|

 |       |       |       |        |       |       |       |
|0-------------------------------|--------------------------------|
|----------------0---------------|----0-------------------0-------|
|--------------------------------|--------------------------------|
|------------3-------------------|3-----------3-------3-----------|

 |       |       |       |        |       |       |       |
|--------------------------------|------------5-------------------|
|--------------------------------|--------------------------------|
|--------------------0---1-------|3---------------3-----------3---|
|3-----------3---------------3---|--------------------------------|

 |       |       |       |        |       |       |       |
|----------------2---------------|----0-------7-------2-----------|
|--------------------2-----------|0-----------------------0-------|
|0-----------0-----------0---0---|--------------------------------|
|--------------------------------|--------------------------------|

 |       |       |       |        |       |       |       |
|--------------------------------|--------------------------------|
|----------------0-----------0---|1-----------1-----------1-------|
|--------------------------------|--------------------1-----------|
|3-----------3-------------------|--------------------------------|

 |       |       |       |        |       |       |       |
|--------------------------------|--------------------------------|
|3-----------3---3-----------3---|--------------------------------|
|--------------------------------|--------------------------------|
|--------------------------------|4-----------4---4-----------4---|

 |       |       |       |        |       |       |       |
|--------------------------------|------------0-------------------|
|----------------0---------------|--------------------1-----------|
|--------------------------------|--------------------------------|
|3-----------3---------------3---|3-----------------------3-------|

 |       |       |       |        |       |       |       |
|--------------------------------|--------------------------------|
|--------------------------------|1---1---1-----------------------|
|1-----------1---1-----------1---|--------------------------------|
|--------------------------------|--------------------------------|

 |       |       |       |        |       |       |       |
|--------------------------------|--------------------------------|
|----------------0-----------0---|--------------------------------|
|--------------------------------|4-----------4-----------4-------|
|3-----------3-------------------|--------------------4-----------|

 |       |       |       |        |       |       |       |
|--------------------------------|--------------------------------|
|3-----------3---3-----------3---|--------------------------------|
|--------------------------------|3-----------3---3-----------3---|
|--------------------------------|--------------------------------|

 |       |       |       |        |       |       |       |
|----------------5---------------|------------5-------5-----------|
|3-----------3-------------------|3-----------------------3-------|
|--------------------------------|--------------------------------|
|--------------------------------|--------------------------------|

 |       |       |       |        |       |       |       |
|--------------------------------|--------------------------------|
|----------------0---------------|0---0-------------------0-------|
|--------------------------------|--------------------------------|
|3-----------3-------------------|------------3-------3-----------|

 |       |       |       |        |       |       |       |
|--------------------------------|------------5-------------------|
|--------------------------------|--------------------------------|
|--------------------0---1-------|3---------------3-----------3---|
|3-----------3---------------3---|--------------------------------|

 |       |       |       |        |       |       |       |
|----------------2---------------|----0-------7-------2-----------|
|--------------------2-----------|0-----------------------0-------|
|0-----------0-----------0---0---|--------------------------------|
|--------------------------------|--------------------------------|

 |       |       |       |        |       |       |       |
|--------------------------------|------------4-------------------|
|----------------0---------------|2---------------2---2-----------|
|--------------------------------|------------------------0-------|
|3-----------3-------------------|--------------------------------|

 |       |       |       |        |       |       |       |
|--------------------------------|--------------------------------|
|0-----------0-------------------|0---2-----------0---0-----------|
|----------------0---------------|------------0-----------0-------|
|--------------------------------|--------------------------------|

 |       |       |       |        |       |       |       |
|--------------------------------|------------0-------------------|
|--------------------------------|--------------------------------|
|--------------------0---1-------|--------------------------------|
|3-----------3---------------3---|3---------------3-----------3---|

 |       |       |       |        |       |       |       |
|----------------11--6-----------|----4-------11------6-----------|
|------------4-----------4---4---|4-----------------------4-------|
|--------------------------------|--------------------------------|
|2-------------------------------|--------------------------------|

 |       |       |       |        |       |       |       |
|----------------5---------------|------------5-------5-----------|
|3-----------3-------------------|3-----------------------3-------|
|--------------------------------|--------------------------------|
|--------------------------------|--------------------------------|

 |       |       |       |        |       |       |       |
|--------------------------------|--------------------------------|
|----------------0---------------|----0-------------------0-------|
|--------------------------------|--------------------------------|
|3-----------3-------------------|------------3-------3-----------|

 |       |       |       |        |       |       |       |
|--------------------------------|------------5-------------------|
|--------------------------------|--------------------------------|
|--------------------0---1-------|3---------------3-----------3---|
|3-----------3---------------3---|--------------------------------|

 |       |       |       |        |       |       |       |
|----------------2---------------|----0-------7-------2-----------|
|--------------------2-----------|0-----------------------0-------|
|0-----------0-----------0---0---|--------------------------------|
|--------------------------------|--------------------------------|

 |       |       |       |        |       |       |       |
|--------------------------------|--------------------------------|
|----------------0---------------|------------3-------3-----------|
|--------------------------------|1-----------------------1-------|
|3-----------3-------------------|--------------------------------|

 |       |       |       |        |       |       |       |
|--------------------------------|----4---------------------------|
|3-----------3-------------------|2-----------2-------2-----------|
|----------------3---------------|------------------------0-------|
|--------------------------------|--------------------------------|

 |       |       |       |        |       |       |       |
|--------------------------------|------------5-------------------|
|--------------------------------|--------------------------------|
|0-----------0-------2---3---0---|3---------------3-----------3---|
|--------------------------------|--------------------------------|

 |       |       |       |        |       |       |       |
|----------------4---0-----------|----2-------9-------4-----------|
|--------------------------------|2-----------------------2-------|
|2-----------2-----------2---2---|--------------------------------|
|--------------------------------|--------------------------------|

 |       |       |       |        |       |       |       |
|--------------------------------|--------------------------------|
|--------------------------------|--------------------------------|
|0-----------0-------------------|1-----------1-----------1-------|
|----------------0-----------0---|--------------------0-----------|

 |       |       |       |        |       |       |       |
|--------------------------------|--------------------------------|
|--------------------------------|2-----------2---2-----------2---|
|2-----------2---2-----------2---|--------------------------------|
|--------------------------------|--------------------------------|

 |       |       |       |        |       |       |       |
|--------------------------------|------------11------7-----------|
|----------------2---------------|4-----------------------4-------|
|0-----------0---------------0---|--------------------------------|
|--------------------------------|--------------------------------|

 |       |       |       |        |       |       |       |
|--------------------------------|--------------------------------|
|--------------------------------|2---2---2-----------------------|
|2-----------2---2-----------2---|--------------------------------|
|--------------------------------|--------------------------------|

 |       |       |       |        |       |       |       |
|--------------------------------|--------------------------------|
|--------------------------------|--------------------------------|
|3-----------3-------------------|4-----------4-----------4-------|
|----------------3-----------3---|--------------------3-----------|

 |       |       |       |        |       |       |       |
|--------------------------------|--------------------------------|
|0-----------0---0-----------0---|--------------------------------|
|--------------------------------|--------------------------------|
|--------------------------------|3-----------3---3-----------3---|

 |       |       |       |        |       |       |       |
|--------------------------------|------------7-------2-----------|
|----------------1---------------|0-----------------------0-------|
|--------------------------------|--------------------------------|
|3-----------3---------------3---|--------------------------------|

 |       |       |       |        |       |       |       |
|--------------------------------|--------------------------------|
|--------------------------------|--------------------------------|
|--------------------------------|3---3---3-----------------------|
|3-----------3---3-----------3---|--------------------------------|

 |       |       |       |        |       |       |       |
|----------------5---------------|------------5-------5-----------|
|------------3-------------------|3-----------------------3-------|
|--------------------------------|--------------------------------|
|1-------------------------------|--------------------------------|

 |       |       |       |        |       |       |       |
|0-------------------------------|--------------------------------|
|----------------0---------------|----0-------------------0-------|
|--------------------------------|--------------------------------|
|------------3-------------------|3-----------3-------3-----------|

 |       |       |       |        |       |       |       |
|--------------------------------|------------5-------------------|
|--------------------------------|--------------------------------|
|--------------------0---1-------|3---------------3-----------3---|
|3-----------3---------------3---|--------------------------------|

 |       |       |       |        |       |       |       |
|----------------2---------------|----0-------7-------2-----------|
|--------------------2-----------|0-----------------------0-------|
|0-----------0-----------0---0---|--------------------------------|
|--------------------------------|--------------------------------|

 |       |       |       |        |       |       |       |
|--------------------------------|--------------------------------|
|----------------0-----------0---|1-----------1-----------1-------|
|--------------------------------|--------------------1-----------|
|3-----------3-------------------|--------------------------------|

 |       |       |       |        |       |       |       |
|--------------------------------|--------------------------------|
|3-----------3---3-----------3---|--------------------------------|
|--------------------------------|--------------------------------|
|--------------------------------|4-----------4---4-----------4---|

 |       |       |       |        |       |       |       |
|--------------------------------|------------0-------------------|
|----------------0---------------|--------------------1-----------|
|--------------------------------|--------------------------------|
|3-----------3---------------3---|3-----------------------3-------|

 |       |       |       |        |       |       |       |
|--------------------------------|--------------------------------|
|--------------------------------|1---1---1-----------------------|
|1-----------1---1-----------1---|--------------------------------|
|--------------------------------|--------------------------------|

 |       |       |       |        |       |       |       |
|--------------------------------|--------------------------------|
|----------------0-----------0---|--------------------------------|
|--------------------------------|4-----------4-----------4-------|
|3-----------3-------------------|--------------------4-----------|

 |       |       |       |        |       |       |       |
|--------------------------------|--------------------------------|
|3-----------3---3-----------3---|--------------------------------|
|--------------------------------|3-----------3---3-----------3---|
|--------------------------------|--------------------------------|
						
# Artist Title Tabdesignator