Joe Cocker

Feelin Alright


							
Tuning : E A D G Time Signature: 4/4
 |               |               |               |
|5---------------------------------------------------8---9-------|
|----------------------------------------------------------------|
|----------------------------------------------------------------|
|----------------------------------------------------------------|

 |               |               |               |
|------------------------------------------------5-------7-------|
|3---------------------------------------------------------------|
|----------------------------------------------------------------|
|----------------------------------------------------------------|

 |               |               |               |
|5---------------------------------------------------8---9-------|
|----------------------------------------------------------------|
|----------------------------------------------------------------|
|----------------------------------------------------------------|

 |               |               |               |
|--------------------------------------------------------0-------|
|3---------------------------------------------------------------|
|----------------------------------------------------------------|
|----------------------------------------------------------------|

 |               |               |               |
|--------------------------------------------1---2-------0-------|
|----------------------------------------------------------------|
|3---------------------------------------------------------------|
|----------------------------------------------------------------|

 |               |               |               |
|--------------------------------------------5---7-------2-------|
|3---------------------------------------------------------------|
|----------------------------------------------------------------|
|----------------------------------------------------------------|

 |               |               |               |
|5-------------------------------------------------------9-------|
|----------------------------------------------------------------|
|----------------------------------------------------------------|
|----------------------------------------------------------------|

 |               |               |               |
|--------------------------------------------------------0-------|
|3---------------------------------------------------------------|
|----------------------------------------------------------------|
|----------------------------------------------------------------|

 |               |               |               |
|----------------------------------------------------------------|
|----------------------------------------------------------------|
|3-------------------------------------------------------3-------|
|----------------------------------------------------------------|

 |               |               |               |
|--------------------------------------------------------0-------|
|3---------------------------------------------------------------|
|----------------------------------------------------------------|
|----------------------------------------------------------------|

 |               |               |               |
|5-------------------------------------------------------9-------|
|----------------------------------------------------------------|
|----------------------------------------------------------------|
|----------------------------------------------------------------|

 |               |               |               |
|10--------------------------------------------------------------|
|----------------------------------------------------------------|
|--------------------------------------------0-------1-------2---|
|--------------------------------3---4---------------------------|

 |               |               |               |
|------------------------------------3-----------0---------------|
|--------------------------------------------------------2-------|
|3---------------3-----------3-----------------------------------|
|----------------------------------------------------------------|

 |               |               |               |
|----------------------------------------------------------------|
|3---------------3-----------3-----------------------------------|
|------------------------------------0-----------1-------2-------|
|----------------------------------------------------------------|

 |               |               |               |
|------------------------------------3-----------0---------------|
|--------------------------------------------------------2-------|
|3---------------3-----------3-----------------------------------|
|----------------------------------------------------------------|

 |               |               |               |
|----------------------------------------------------------------|
|3---------------3-----------3-----------------------------------|
|------------------------------------0-----------1-------2-------|
|----------------------------------------------------------------|

 |               |               |               |
|------------------------------------3-------3---0---------------|
|--------------------------------------------------------2-------|
|3---------------3-----------3-----------------------------------|
|----------------------------------------------------------------|

 |               |               |               |
|----------------------------------------------------------------|
|3---------------3-----------3-----------------------------------|
|------------------------------------0-------0---1-------2-------|
|----------------------------------------------------------------|

 |               |               |               |
|------------------------------------3-----------0---------------|
|--------------------------------------------------------2-------|
|3---------------3-----------3-----------------------------------|
|----------------------------------------------------------------|

 |               |               |               |
|----------------------------------------------------------------|
|3---------------3-----------3-----------------------------------|
|------------------------------------0-----------1-------2-------|
|----------------------------------------------------------------|

 |               |               |               |
|------------------------0-------5-------------------0-----------|
|------------------------4-------------------------------0-------|
|3---------------------------------------------------------------|
|----------------------------------------------------------------|

 |               |               |               |
|----------------------------6-----------2-----------------------|
|3-----------------------------------------------3-------0-------|
|----------------------------------------------------------------|
|----------------------------------------------------------------|

 |               |               |               |
|------------------------0-------5-------------------0-----------|
|------------------------4---------------------------------------|
|3-------------------------------------------------------3-------|
|----------------------------------------------------------------|

 |               |               |               |
|----------------------------6-------2---------------------------|
|3-----------------------------------------------3-------0-------|
|----------------------------------------------------------------|
|----------------------------------------------------------------|

 |               |               |               |
|------------------------0-------5-------5-----------------------|
|------------------------4---------------------------------------|
|3-------------------------------------------------------3-------|
|----------------------------------------------------------------|

 |               |               |               |
|----------------------------------------------------5-----------|
|3-------------------------------3-------3---------------3-------|
|----------------------------3-----------------------------------|
|----------------------------------------------------------------|

 |               |               |               |
|------------------------0-------5-------------------0-----------|
|------------------------4---------------------------------------|
|3-------------------------------------------------------3-------|
|----------------------------------------------------------------|

 |               |               |               |
|----------------------------7-----------5-------2---------------|
|3-------3-------------------------------------------3---0-------|
|----------------------------------------------------------------|
|----------------------------------------------------------------|

 |               |               |               |
|----------------0-----------5-------7---------------0-----------|
|----------------------------------------------------------------|
|3-------------------------------------------------------3-------|
|----------------------------------------------------------------|

 |               |               |               |
|------------------------------------2-----------3-------4-------|
|3-------3-----------3-------3-----------------------------------|
|------------------------3---------------------------------------|
|----------------------------------------------------------------|

 |               |               |               |
|5-------------------9-------10------11------12------12--11--10--|
|----------------------------------------------------------------|
|----------------------------------------------------------------|
|----------------------------------------------------------------|

 |               |               |               |
|----10------10------10--5---10------10--5---10------------------|
|----------------------------------------------------------------|
|----------------------------------------------------------------|
|----------------------------------------------------------------|

 |               |               |               |
|5-----------5---5-----------0---------------0-------------------|
|--------------------------------------------------------4-------|
|--------------------------------3-------------------------------|
|----------------------------------------------------------------|

 |               |               |               |
|----------------------------------------------------------------|
|3-----------3---3---------------3-------------------------------|
|----------------------------3-------0-----------1-------2-------|
|----------------------------------------------------------------|

 |               |               |               |
|--------------------------------------------0-------------------|
|--------------------------------2---3---4-----------------------|
|3-----------3---3-----------3-------------------------------3---|
|----------------------------------------------------------------|

 |               |               |               |
|----------------------------------------------------------------|
|3---------------3---------------3---3---------------------------|
|------------3---------------3-----------0-------1-------2-------|
|----------------------------------------------------------------|

 |               |               |               |
|----------------------------------------------------------------|
|----------------------------------------------------------------|
|3-----------3---3---------------3---3-----------3---------------|
|----------------------------3-----------3-------------------3---|

 |               |               |               |
|----------------------------------------------------------------|
|--------------------------------------------3-------------------|
|----------------------------0---1---2---3---------------0-------|
|1-----------1---1-----------------------------------------------|

 |               |               |               |
|------------------------------------0---3---5-------2---0-------|
|--------------------------------2-------------------------------|
|3-----------3---3-----------3-----------------------------------|
|----------------------------------------------------------------|

 |               |               |               |
|----------------------------------------------------------------|
|3---------------3---------------3---3---------------------------|
|------------3---------------3-----------0-------1-------2-------|
|----------------------------------------------------------------|

 |               |               |               |
|------------------------7---5-------5---2-------0---------------|
|--------------------------------------------------------2-------|
|3-------3-------------------------------------------------------|
|----------------------------------------------------------------|

 |               |               |               |
|----------------------------------------------------------------|
|3-------3-------------------3-------3---------------------------|
|------------------------3---------------0-------1-------2-------|
|----------------------------------------------------------------|

 |               |               |               |
|------------------------5---7-------7---5-------0---------------|
|--------------------------------------------------------2-------|
|3-------3-------------------------------------------------------|
|----------------------------------------------------------------|

 |               |               |               |
|----------------------------------------------------------------|
|3---------------3-----------3-----------------------------------|
|------------------------3-----------0-----------1-------2-------|
|----------------------------------------------------------------|

 |               |               |               |
|------------------------------------0---------------0-----------|
|------------------------2---3---------------------------2-------|
|3-------3-------------------------------------------------------|
|----------------------------------------------------------------|

 |               |               |               |
|------------------------2---3-------4-------5---10------9-------|
|3-------3-------------------------------------------------------|
|----------------------------------------------------------------|
|----------------------------------------------------------------|

 |               |               |               |
|5---5-------5-------0---3-------5---5-------5-------0-----------|
|--------------------------------------------------------4-------|
|----------------------------------------------------------------|
|----------------------------------------------------------------|

 |               |               |               |
|----------------------------------------------------------------|
|3---3-------3-------1-----------3---3-------3-------1-----------|
|------------------------3-------------------------------3-------|
|----------------------------------------------------------------|

 |               |               |               |
|----------------------------0---3---5---7---5-------3---0-------|
|----------------------------------------------------------------|
|3-----------3---3-----------------------------------------------|
|----------------------------------------------------------------|

 |               |               |               |
|10--10------10------8---5-------10--10------10------10--8---5---|
|----------------------------------------------------------------|
|----------------------------------------------------------------|
|----------------------------------------------------------------|

 |               |               |               |
|----------------------------------------------------------------|
|----------------------------------------------------------------|
|3-----------------------3-------3-------------------------------|
|----------------------------------------------------------------|

 |               |               |               |
|----------------------------------------------------------------|
|----------------------------------------------------------------|
|----------------------------------------------------------------|
|1-----------------------1-------1-------------------------------|

 |               |               |               |
|----------------------------------------------------------------|
|----------------------------------------------------------------|
|3-----------------------3-------3-------------------------------|
|----------------------------------------------------------------|

 |               |               |               |
|----------------------------------------------------------------|
|----------------------------------------------------------------|
|----------------------------------------------------------------|
|1-----------------------1-------1-------------------------------|

 |               |               |               |
|5-------------------------------5-------------------5---0-------|
|----------------------------------------------------------------|
|----------------------------------------------------------------|
|----------------------------------------------------------------|

 |               |               |               |
|----------------------------------------------------------------|
|3-------------------------------3---3---------------------------|
|----------------------------3-----------0-------1-------2-------|
|----------------------------------------------------------------|

 |               |               |               |
|------------------------0-------5-------------------5---0-------|
|----------------------------------------------------------------|
|3---------------------------------------------------------------|
|----------------------------------------------------------------|

 |               |               |               |
|----------------------------------------------------------------|
|3-------------------------------3---3---------------------------|
|----------------------------3-----------0-------1-------2-------|
|----------------------------------------------------------------|

 |               |               |               |
|--------------------0---5-------7---5---2-------0---------------|
|--------------------------------------------------------2-------|
|3---------------------------------------------------------------|
|----------------------------------------------------------------|

 |               |               |               |
|----------------------------------------2-------3-------4-------|
|3-------------------------------3---3---------------------------|
|----------------------------3-----------------------------------|
|----------------------------------------------------------------|

 |               |               |               |
|5-------5-----------------------5-------8---9-------5-----------|
|----------------------------------------------------------------|
|----------------------------3-----------------------------------|
|----------------------------------------------------------------|

 |               |               |               |
|----------------------------------------------------------------|
|3-------3-----------------------3---3---------------------------|
|----------------------------3-------------------0-------2-------|
|----------------------------------------1-----------------------|

 |               |               |               |
|----------------------------0---3---4-------5-------0-----------|
|--------------------------------------------------------4-------|
|3-------3-------------------------------------------------------|
|----------------------------------------------------------------|

 |               |               |               |
|----------------------------5---8---9-------10------8---5-------|
|3-------3-------------------------------------------------------|
|----------------------------------------------------------------|
|----------------------------------------------------------------|

 |               |               |               |
|----------------------------0---3---4-------5-------0-----------|
|----------------------------------------------------------------|
|3-------3-----------------------------------------------3-------|
|----------------------------------------------------------------|

 |               |               |               |
|------------2---3---4-------5-------8---9---10----------8-------|
|3---------------------------------------------------------------|
|----------------------------------------------------------------|
|----------------------------------------------------------------|

 |               |               |               |
|5-----------5---5-----------0---------------0-------------------|
|--------------------------------------------------------4-------|
|--------------------------------3-------------------------------|
|----------------------------------------------------------------|

 |               |               |               |
|----------------------------------------------------------------|
|3-----------3---3---------------3-------------------------------|
|----------------------------3-------0-----------1-------2-------|
|----------------------------------------------------------------|

 |               |               |               |
|--------------------------------------------0-------------------|
|--------------------------------2---3---4-----------------------|
|3-----------3---3-----------3-------------------------------3---|
|----------------------------------------------------------------|

 |               |               |               |
|----------------------------------------------------------------|
|3---------------3---------------3---3---------------------------|
|------------3---------------3-----------0-------1-------2-------|
|----------------------------------------------------------------|

 |               |               |               |
|----------------------------------------------------------------|
|----------------------------------------------------------------|
|3-----------3---3---------------3---3-----------3---------------|
|----------------------------3-----------3-------------------3---|

 |               |               |               |
|----------------------------------------------------------------|
|--------------------------------------------3-------------------|
|----------------------------0---1---2---3---------------0-------|
|1-----------1---1-----------------------------------------------|

 |               |               |               |
|------------------------------------0---3---5-------2---0-------|
|--------------------------------2-------------------------------|
|3-----------3---3-----------3-----------------------------------|
|----------------------------------------------------------------|

 |               |               |               |
|----------------------------------------------------------------|
|3---------------3---------------3---3---------------------------|
|------------3---------------3-----------0-------1-------2-------|
|----------------------------------------------------------------|

 |               |               |               |
|5-----------5---5-----------0---------------0-------------------|
|--------------------------------------------------------4-------|
|--------------------------------3-------------------------------|
|----------------------------------------------------------------|

 |               |               |               |
|----------------------------------------------------------------|
|3-----------3---3---------------3-------------------------------|
|----------------------------3-------0-----------1-------2-------|
|----------------------------------------------------------------|

 |               |               |               |
|--------------------------------------------0-------------------|
|--------------------------------2---3---4-----------------------|
|3-----------3---3-----------3-------------------------------3---|
|----------------------------------------------------------------|

 |               |               |               |
|----------------------------------------------------------------|
|3---------------3---------------3---3---------------------------|
|------------3---------------3-----------0-------1-------2-------|
|----------------------------------------------------------------|

 |               |               |               |
|----------------------------------------------------------------|
|----------------------------------------------------------------|
|3-----------3---3---------------3---3-----------3---------------|
|----------------------------3-----------3-------------------3---|

 |               |               |               |
|----------------------------------------------------------------|
|--------------------------------------------3-------------------|
|----------------------------0---1---2---3---------------0-------|
|1-----------1---1-----------------------------------------------|

 |               |               |               |
|------------------------------------0---3---5-------2---0-------|
|--------------------------------2-------------------------------|
|3-----------3---3-----------3-----------------------------------|
|----------------------------------------------------------------|

 |               |               |               |
|----------------------------------------------------------------|
|3---------------3---------------3---3---------------------------|
|------------3---------------3-----------0-------1-------2-------|
|----------------------------------------------------------------|

 |               |               |               |
|5-----------5---5-----------0---------------0-------------------|
|--------------------------------------------------------4-------|
|--------------------------------3-------------------------------|
|----------------------------------------------------------------|

 |               |               |               |
|----------------------------------------------------------------|
|3-----------3---3---------------3-------------------------------|
|----------------------------3-------0-----------1-------2-------|
|----------------------------------------------------------------|

 |               |               |               |
|--------------------------------------------0-------------------|
|--------------------------------2---3---4-----------------------|
|3-----------3---3-----------3-------------------------------3---|
|----------------------------------------------------------------|

 |               |               |               |
|----------------------------------------------------------------|
|3---------------3---------------3---3---------------------------|
|------------3---------------3-----------0-------1-------2-------|
|----------------------------------------------------------------|

 |               |               |               |
|----------------------------------------------------------------|
|----------------------------------------------------------------|
|3-----------3---3---------------3---3-----------3---------------|
|----------------------------3-----------3-------------------3---|

 |               |               |               |
|----------------------------------------------------------------|
|--------------------------------------------3-------------------|
|----------------------------0---1---2---3---------------0-------|
|1-----------1---1-----------------------------------------------|

 |               |               |               |
|------------------------------------0---3---5-------2---0-------|
|--------------------------------2-------------------------------|
|3-----------3---3-----------3-----------------------------------|
|----------------------------------------------------------------|

 |               |               |               |
|----------------------------------------------------------------|
|3---------------3---------------3---3---------------------------|
|------------3---------------3-----------0-------1-------2-------|
|----------------------------------------------------------------|

 |               |               |               |
|5-----------5---5-----------0---------------0-------------------|
|--------------------------------------------------------4-------|
|--------------------------------3-------------------------------|
|----------------------------------------------------------------|

 |               |               |               |
|----------------------------------------------------------------|
|3-----------3---3---------------3-------------------------------|
|----------------------------3-------0-----------1-------2-------|
|----------------------------------------------------------------|

 |               |               |               |
|--------------------------------------------0-------------------|
|--------------------------------2---3---4-----------------------|
|3-----------3---3-----------3-------------------------------3---|
|----------------------------------------------------------------|

 |               |               |               |
|----------------------------------------------------------------|
|3---------------3---------------3---3---------------------------|
|------------3---------------3-----------0-------1-------2-------|
|----------------------------------------------------------------|

 |               |               |               |
|----------------------------------------------------------------|
|----------------------------------------------------------------|
|3-----------3---3---------------3---3-----------3---------------|
|----------------------------3-----------3-------------------3---|

 |               |               |               |
|----------------------------------------------------------------|
|--------------------------------------------3-------------------|
|----------------------------0---1---2---3---------------0-------|
|1-----------1---1-----------------------------------------------|

 |               |               |               |
|------------------------------------0---3---5-------2---0-------|
|--------------------------------2-------------------------------|
|3-----------3---3-----------3-----------------------------------|
|----------------------------------------------------------------|

 |               |               |               |
|----------------------------------------------------------------|
|3---------------3---------------3---3---------------------------|
|------------3---------------3-----------0-------1-------2-------|
|----------------------------------------------------------------|

 |               |               |               |
|5-----------5---5-----------0---------------0-------------------|
|--------------------------------------------------------4-------|
|--------------------------------3-------------------------------|
|----------------------------------------------------------------|

 |               |               |               |
|----------------------------------------------------------------|
|3-----------3---3---------------3-------------------------------|
|----------------------------3-------0-----------1-------2-------|
|----------------------------------------------------------------|

 |               |               |               |
|--------------------------------------------0-------------------|
|--------------------------------2---3---4-----------------------|
|3-----------3---3-----------3-------------------------------3---|
|----------------------------------------------------------------|

 |               |               |               |
|----------------------------------------------------------------|
|3---------------3---------------3---3---------------------------|
|------------3---------------3-----------0-------1-------2-------|
|----------------------------------------------------------------|

 |               |               |               |
|----------------------------------------------------------------|
|----------------------------------------------------------------|
|3-----------3---3---------------3---3-----------3---------------|
|----------------------------3-----------3-------------------3---|

 |               |               |               |
|----------------------------------------------------------------|
|--------------------------------------------3-------------------|
|----------------------------0---1---2---3---------------0-------|
|1-----------1---1-----------------------------------------------|

 |               |               |               |
|------------------------------------0---3---5-------2---0-------|
|--------------------------------2-------------------------------|
|3-----------3---3-----------3-----------------------------------|
|----------------------------------------------------------------|

 |               |               |               |
|----------------------------------------------------------------|
|3---------------3---------------3---3---------------------------|
|------------3---------------3-----------0-------1-------2-------|
|----------------------------------------------------------------|

 |               |               |               |
|----------------------------------------------------------------|
|----------------------------------------------------------------|
|3---------------------------------------------------------------|
|----------------------------------------------------------------|
						
# Artist Title Tabdesignator