Iron Maiden

The Unbeliever


							
Tempo: Variable (Changes from 90-180 Bpm)
Tuning: Standard Bass Tuning
     E  S S S S S E  S S S S S S S    S S S S S S S E  S S S E.  T T
G||-----2-4-9-----7----9---7---7-9-|--------4-9-----7----9-7---------|
D||--2--------9-7----7---7---7-----|------7-----9-7----7-----9---L---|
A||--------------------------------|--7-7----------------------------|
E||--------------------------------|---------------------------------|

  S S S S S S S E  S S S S S S S    S S S S S S S E  S  T  T  S  E.  T T
--------4-9-----7----9---7---7-9-|--------4-9-----7--4-12-14-12----------|
------7-----9-7----7---7---7-----|------7-----9-7---------------14---L---|
--7-7----------------------------|--7-7----------------------------------|
---------------------------------|---------------------------------------|

   E   S S S S S E  S S S S S S S    S S S S S S S E  S S S E.  T T
-----------9-----7----9---7---7-9-|--------4-9-----7----9-7---------|
---------9---9-7----7---7---7-----|------7-----9-7----7-----9---L---|
------12--------------------------|--7-7----------------------------|
--12------------------------------|---------------------------------|

  S S S S S S S E  S S S S S S S    S S S S S S S E  S  T  T  S  E.  T T
--------4-9-----7----9---7---7-9-|--------4-9-----7--4-12-14-12----------|
------7-----9-7----7---7---7-----|------7-----9-7---------------14---L---|
--7-7----------------------------|--7-7----------------------------------|
---------------------------------|---------------------------------------|

   S  T  T  S  S  S  S  S  E   S  E.   S  S  S
------------------------------12-12---12-12-12-|
--------------------12-12-12-------------------|
-----12-12-12-12-12----------------------------|
--12-------------------------------------------|

   S  T  T  S  S  S  S  S  E   S  Q    S. T
--12----------------------------------------|
-----12-12-12-12-12-------------------------|
--------------------12-12-12----------------|
------------------------------12-12----L----|

   S  T  T  S  S  S  S  S  E   S  E.   S  S  S
------------------------------12-12---12-12-12-|
--------------------12-12-12-------------------|
-----12-12-12-12-12----------------------------|
--12-------------------------------------------|

   S  T  T  S  S  S  S  S  E   S  Q    S. T     Q    Q     E  E  Q
--12----------------------------------------|-------------------------|
-----12-12-12-12-12-------------------------|-------------------------|
--------------------12-12-12----------------|-------------10--9-------|
------------------------------12-12----L----|--12---------------------|

   E  E  Q    E  E  E  E     Q    Q    E  E  Q       E  E  Q    E  E  E  E
--------------------------|------------0----------|-------------------------|
-----------------0--------|---------------4-------|--0--2----------0--------|
------7-------------------|--7--------------------|-------------3-----2--3--|
--10----------8-----7--8--|-----------------------|-------------------------|

  E  Q    Q    E  E  E     E  E  E  Q    E  E  E     E  Q    Q    E  E  E
---------------0--------|-------------------------|---------------0--------|
-----2------------4-----|-----0--2----------0-----|-----2------------4-----|
--2---------------------|----------------3-----2--|--3---------------------|
------------------------|-------------------------|------------------------|

  E  E  E  E  E  E  E  E     S. T E.  E  S E.  E  S S S
--------------------------|----------------2---2--2-2-0-|
-----0--2-----------------|-----------------------------|
-----------2--3--2--3--2--|--L----0---0--0--------------|
--------------------------|-----------------------------|

  E  E.  E  S E.  E  S S S    E  E.  E  S E.  E  S S S
--------------2---2--2-2-0-|--------------2---2--2-2-0-|
--2------------------------|--2------------------------|
-----0---0--0--------------|-----0---0--0--------------|
---------------------------|---------------------------|

  E  E.  E  S E.  E  S S S    E  E.  E  S E.  E  S S S
--------------2---2--2-2-0-|--------------2---2--2-2-0-|
--2------------------------|--2------------------------|
-----0---0--0--------------|-----0---0--0--------------|
---------------------------|---------------------------|

  E  E.  E  S E.  E  S S S    E  E.  E  S E.  E  S S S
--------------2---2--2-2-0-|--------------2---2--2-2-0-|
--2------------------------|--2------------------------|
-----0---0--0--------------|-----0---0--0--------------|
---------------------------|---------------------------|

  E  E.  E  S E.  E  S S S    E  Q    Q    E  E  E     E  E  E  Q    E  E  E
--------------2---2--2-2-0-|---------------0--------|-------------------------|
--2------------------------|--2--2------------4-----|-----0--2----------0-----|
-----0---0--0--------------|------------------------|----------------3-----2--|
---------------------------|------------------------|-------------------------|

  E  Q    Q    E  E  E     E  E  E  E  E  E  E  E
---------------0--------|--------------------------|
-----2------------4-----|-----0--2-----------------|
--3---------------------|-----------2--3--2--3--2--|
------------------------|--------------------------|

  S. T E.  E  S E.  E  S S S    E  E.  E  S E.  E  S S S
----------------2---2--2-2-0-|--------------2---2--2-2-0-|
-----------------------------|--2------------------------|
--L----0---0--0--------------|-----0---0--0--------------|
-----------------------------|---------------------------|

  E  E.  E  S E.  E  S S S    E  E.  E  S E.  E  S S S
--------------2---2--2-2-0-|--------------2---2--2-2-0-|
--2------------------------|--2------------------------|
-----0---0--0--------------|-----0---0--0--------------|
---------------------------|---------------------------|

  E  E.  E  S E.  E  S S S    E  E.  E  S E.  E  S S S
--------------2---2--2-2-0-|--------------2---2--2-2-0-|
--2------------------------|--2------------------------|
-----0---0--0--------------|-----0---0--0--------------|
---------------------------|---------------------------|

  E  E.  E  S E.  E  S S S    E  E.  E  S E.  E  S S S
--------------2---2--2-2-0-|--------------2---2--2-2-0-|
--2------------------------|--2------------------------|
-----0---0--0--------------|-----0---0--0--------------|
---------------------------|---------------------------|

  E  E.  E  S E.  E  S S S    E  E.  E  S E.  E  S S S
--------------7---7--7-7-5-|--------------7---7--7-7-5-|
--2--0---0--0--------------|--7------------------------|
---------------------------|-----5---5--5--------------|
---------------------------|---------------------------|

  E  E.  E  S E.  E  S S S    E  E.  E  S E.  E  S S S
--------------7---7--7-7-5-|--------------7---7--7-7-5-|
--7------------------------|--7------------------------|
-----5---5--5--------------|-----5---5--5--------------|
---------------------------|---------------------------|

  E  E.  E  S E.  E  S S S    E  E.  E  S E.  E  S S S
--------------7---7--7-7-5-|--------------7---7--7-7-5-|
--7------------------------|--7------------------------|
-----5---5--5--------------|-----5---5--5--------------|
---------------------------|---------------------------|

  E  E.  E  S E.  E  S S S    E  E.  E  S E.  E  S S S
--------------7---7--7-7-5-|--------------7---7--7-7-5-|
--7------------------------|--7------------------------|
-----5---5--5--------------|-----5---5--5--------------|
---------------------------|---------------------------|

  E  S S S S S S S E  S S S S S    S S S S S S S S S E  S S S S S
---------0---------0--------0---|----------0---------0--------2-0-|
--7--------4-0-2------4-0-2---4-|--0-2---2---4-2-4------4-0-2-----|
-------7------------------------|---------------------------------|
-----0--------------------------|------0--------------------------|

  E  S S S S S S S E  S S S S S    S S S S S S S S S E  S S S S S
---------0---------0--------0---|----------0---------0--------2-0-|
--4----2---4-0-2------4-0-2---4-|--0-2---2---4-2-4------4-0-2-----|
--------------------------------|---------------------------------|
-----0--------------------------|------0--------------------------|

  E  E  E  E  E  E  E  E     E  E  E  E  E  E  E  E
-----------------------0--|--0--0--0--0--0--0--0--0--|
--4--2--2--2--2--2--2-----|--------------------------|
--------------------------|--------------------------|
--------------------------|--------------------------|

  E  E  E  E  E  E  E  E     E  E  E  E  E  E  E  E
--------------------------|--------------------------|
--0--------------------0--|--0--0--0--0--0--0--0--0--|
-----3--3--3--3--3--3-----|--------------------------|
--------------------------|--------------------------|

  E  E  E  E  E  E  E  E     E  E  E  E  E  E  E  E
-----------------------0--|--0--0--0--0--0--0--0--0--|
--1--2--2--2--2--2--2-----|--------------------------|
--------------------------|--------------------------|
--------------------------|--------------------------|

  E  E  E  E  E  E  E  E     E  E  E  E  E  E  E  E
--------------------------|--------------------------|
--0--------------------0--|--0--0--0--0--0--0--0--0--|
-----3--3--3--3--3--3-----|--------------------------|
--------------------------|--------------------------|

  E  E  E  E  E  E  E  E     E  E  E  E  E  E  E  E
-----------------------0--|--0--0--0--0--0--0--0--0--|
--1--2--2--2--2--2--2-----|--------------------------|
--------------------------|--------------------------|
--------------------------|--------------------------|

  E  E  E  E  E  E  E  E     E  E  E  E  E  E  E  E
--------------------------|--------------------------|
--0--------------------0--|--0--0--0--0--0--0--0--0--|
-----3--3--3--3--3--3-----|--------------------------|
--------------------------|--------------------------|

  E  E  E  E  E  E  E  E     E  E  E  E  E  E  E  E
-----------------------0--|--0--0--0--0--0--0--0--0--|
--1--2--2--2--2--2--2-----|--------------------------|
--------------------------|--------------------------|
--------------------------|--------------------------|

  E  E  E  E  E  E  E  E     E  E  E  E  E  E  E  E
--------------------------|--------------------------|
--0--------------------0--|--0--0--0--0--0--0--0--0--|
-----3--3--3--3--3--3-----|--------------------------|
--------------------------|--------------------------|

  E  S S S S S S S E  S S S S S    S S S S S S S S S E  S S S S S
---------0---------0--------0---|----------0---------0--------2-0-|
--1----2---4-0-2------4-0-2---4-|--0-2---2---4-2-4------4-0-2-----|
--------------------------------|---------------------------------|
-----0--------------------------|------0--------------------------|

  E  S S S S S S S E  S S S S S    S S S S S S S S S E  S S S S S
---------0---------0--------0---|----------0---------0--------2-0-|
--4----2---4-0-2------4-0-2---4-|--0-2---2---4-2-4------4-0-2-----|
--------------------------------|---------------------------------|
-----0--------------------------|------0--------------------------|

  E  E  E  E  E  E  E  E     E  E  E  E  E  E  E  E
-----------------------0--|--0--0--0--0--0--0--0--0--|
--4--2--2--2--2--2--2-----|--------------------------|
--------------------------|--------------------------|
--------------------------|--------------------------|

  E  E  E  E  E  E  E  E     E  E  E  E  E  E  E  E
--------------------------|--------------------------|
--0--------------------0--|--0--0--0--0--0--0--0--0--|
-----3--3--3--3--3--3-----|--------------------------|
--------------------------|--------------------------|

  E  E  E  E  E  E  E  E     E  E  E  E  E  E  E  E
-----------------------0--|--0--0--0--0--0--0--0--0--|
--1--2--2--2--2--2--2-----|--------------------------|
--------------------------|--------------------------|
--------------------------|--------------------------|

  E  E  E  E  E  E  E  E     E  E  E  E  E  E  E  E
--------------------------|--------------------------|
--0--------------------0--|--0--0--0--0--0--0--0--0--|
-----3--3--3--3--3--3-----|--------------------------|
--------------------------|--------------------------|

  E  E  E  E  E  E  E  E     E  E  E  E  E  E  E  E
-----------------------0--|--0--0--0--0--0--0--0--0--|
--1--2--2--2--2--2--2-----|--------------------------|
--------------------------|--------------------------|
--------------------------|--------------------------|

  E  E  E  E  E  E  E  E     E  E  E  E  E  E  E  E
--------------------------|--------------------------|
--0--------------------0--|--0--0--0--0--0--0--0--0--|
-----3--3--3--3--3--3-----|--------------------------|
--------------------------|--------------------------|

  E  E  E  E  E  E  E  E     E  E  E  E  E  E  E  E
-----------------------0--|--0--0--0--0--0--0--0--0--|
--1--2--2--2--2--2--2-----|--------------------------|
--------------------------|--------------------------|
--------------------------|--------------------------|

  E  E  E  E  E  E  E  E     E  E  E  E  E  E  E  E
--------------------------|--------------------------|
--0--------------------0--|--0--0--0--0--0--0--0--0--|
-----3--3--3--3--3--3-----|--------------------------|
--------------------------|--------------------------|

  E  E  E  E  E  E  E  E     E  E  E  E  E  E  E  E
--------------0--0--0-----|--------2--2--2--------4--|
--1--------------------0--|--0--0-----------2--2-----|
-----3--3--3--------------|--------------------------|
--------------------------|--------------------------|

  E  E  E  E  E  E  E  E     Q    S S E  E  E  E  E
--------------0--0--0-----|-------5-7-7--7--7--5-----|
-----------------------0--|--L--------------------7--|
-----3--3--3--------------|--------------------------|
--------------------------|--------------------------|

  E  E  E  E  E  E  E  E     E  E  E  E  E  E  E  E
--------------0--0--0-----|--------2--2--2--------4--|
-----------------------0--|--0--0-----------2--2-----|
--5--3--3--3--------------|--------------------------|
--------------------------|--------------------------|

  E  E  E  E  E  E  E  E     Q    S S E  E  E  E  E
--------------------------|-------7-9-9--9--9--7-----|
--------------0--0--0--2--|--L--------------------9--|
-----3--3--3--------------|--------------------------|
--------------------------|--------------------------|

  E  E  E  E  E  E  E  E     E  E  E  E  E  E  E  E
--------------0--0--0-----|--------2--2--2--------4--|
--7--------------------0--|--0--0-----------2--2-----|
--------------------------|--------------------------|
-----8--8--8--------------|--------------------------|

  E  E  E  E  E  E  E  E     Q    S S E  E  E  E  E
--------------0--0--0-----|-------5-7-7--7--7--5-----|
-----------------------0--|--L--------------------7--|
-----3--3--3--------------|--------------------------|
--------------------------|--------------------------|

  E  E  E  E  E  E  E  E     E  E  E  E  E  E  E  E
--------------0--0--0-----|--------2--2--2--------4--|
-----------------------0--|--0--0-----------2--2-----|
--5--3--3--3--------------|--------------------------|
--------------------------|--------------------------|

  E  E  E  E  E  E  E  E     W                   W
--------------------------|-------------------|-------------------|
--------------0--0--0--2--|--L----------------|--L----------------|
-----3--3--3--------------|-------------------|-------------------|
--------------------------|-------------------|-------------------|

  W                   S S S S S S S S S S S S S S S S
-------------------|------4-----------4-----------4---|
--L----------------|--L---2-2-2-2-2-2-2-2-2-2-2-2-2-2-|
-------------------|----------------------------------|
-------------------|----------------------------------|

  S S S S S S S S S S S S S S S S    S S S S S S S S S S S S S S S S
--4---4-----------0-----------0---|--0---0---------------------------|
--2-2-2-2-2-2-2-2-----------------|------------------0-----------0---|
------------------3-3-3-3-3-3-3-3-|--3-3-3-3-3-3-3-3-----------------|
----------------------------------|------------------3-3-3-3-3-3-3-3-|

  S S S S S S S S S S S S S S S S    S S S S S S S S S S S S S S S S
------2-----------4-----------4---|--4---4-----------4-----------4---|
--0---0-0-0-0-0-0-2-2-2-2-2-2-2-2-|--2-2-2-2-2-2-2-2-2-2-2-2-2-2-2-2-|
----------------------------------|----------------------------------|
--3-3-----------------------------|----------------------------------|

  S S S S S S S S S S S S S S S S    S S S S S S S S S S S S S S S S
--4---4-----------0-----------0---|--0---0---------------------------|
--2-2-2-2-2-2-2-2-----------------|------------------0-----------0---|
------------------3-3-3-3-3-3-3-3-|--3-3-3-3-3-3-3-3-----------------|
----------------------------------|------------------3-3-3-3-3-3-3-3-|

  S S S S S S S S S S S S S S S S    S S S S S S S S S S S S S S S S
------2-----------4-----------4---|--4---4-----------4-----------4---|
--0---0-0-0-0-0-0-2-2-2-2-2-2-2-2-|--2-2-2-2-2-2-2-2-2-2-2-2-2-2-2-2-|
----------------------------------|----------------------------------|
--3-3-----------------------------|----------------------------------|

  S S S S S S S S S S S S S S S S    S S S S S S S S S S S S S S S S
--4---4-----------0-----------0---|--0---0---------------------------|
--2-2-2-2-2-2-2-2-----------------|------------------0-----------0---|
------------------3-3-3-3-3-3-3-3-|--3-3-3-3-3-3-3-3-----------------|
----------------------------------|------------------3-3-3-3-3-3-3-3-|

  S S S S S S S S S S S S S S S S    S S S S S S S S S S S S S S S S
------2-----------4-----------4---|--4---4-----------4-----------4---|
--0---0-0-0-0-0-0-2-2-2-2-2-2-2-2-|--2-2-2-2-2-2-2-2-2-2-2-2-2-2-2-2-|
----------------------------------|----------------------------------|
--3-3-----------------------------|----------------------------------|

  S S S S S S S S S S S S S S S S    S S S S S S S S S S S S S S S S
--4---4-----------0-----------0---|--0---0---------------------------|
--2-2-2-2-2-2-2-2-----------------|------------------0-----------0---|
------------------3-3-3-3-3-3-3-3-|--3-3-3-3-3-3-3-3-----------------|
----------------------------------|------------------3-3-3-3-3-3-3-3-|

  S S S S S S S S S S S S S S S S    S S S S S S S S S S S S S S S S
------2-----------4-----------4---|--4---4-----------4-----------4---|
--0---0-0-0-0-0-0-2-2-2-2-2-2-2-2-|--2-2-2-2-2-2-2-2-2-2-2-2-2-2-2-2-|
----------------------------------|----------------------------------|
--3-3-----------------------------|----------------------------------|

  S S S S S S S S S S S S S S S S    S S S S S S S S S S S S S S S S
--4---4-----------0-----------0---|--0---0---------------------------|
--2-2-2-2-2-2-2-2-----------------|------------------0-----------0---|
------------------3-3-3-3-3-3-3-3-|--3-3-3-3-3-3-3-3-----------------|
----------------------------------|------------------3-3-3-3-3-3-3-3-|

  S S S S S S S S S S S S S S S S    S S S S S S S S S S S S S S S S
------2-----------4-----------4---|--4---4-----------4-----------4---|
--0---0-0-0-0-0-0-2-2-2-2-2-2-2-2-|--2-2-2-2-2-2-2-2-2-2-2-2-2-2-2-2-|
----------------------------------|----------------------------------|
--3-3-----------------------------|----------------------------------|

  S S S S S S S S S S S S S S S S    S S S S S S S S S S S S S S S S
--4---4-----------0-----------0---|--0---0---------------------------|
--2-2-2-2-2-2-2-2-----------------|------------------0-----------0---|
------------------3-3-3-3-3-3-3-3-|--3-3-3-3-3-3-3-3-----------------|
----------------------------------|------------------3-3-3-3-3-3-3-3-|

  S S S S S S S S S S S S S S S S    S S S S S S S S S S S S S S S S
------2-----------4-----------4---|--4---4-----------4-----------4---|
--0---0-0-0-0-0-0-2-2-2-2-2-2-2-2-|--2-2-2-2-2-2-2-2-2-2-2-2-2-2-2-2-|
----------------------------------|----------------------------------|
--3-3-----------------------------|----------------------------------|

  S S S S S S S S S S S S S S S S    S S S S S S S S S S S S S S S S
--4---4-----------0-----------0---|--0---0---------------------------|
--2-2-2-2-2-2-2-2-----------------|------------------0-----------0---|
------------------3-3-3-3-3-3-3-3-|--3-3-3-3-3-3-3-3-----------------|
----------------------------------|------------------3-3-3-3-3-3-3-3-|

  S S S S S S S S S S S S S S S S    S S S S S S S S S S S S S S S S
------2-----------4-----------4---|--4---4-----------4-----------4---|
--0---0-0-0-0-0-0-2-2-2-2-2-2-2-2-|--2-2-2-2-2-2-2-2-2-2-2-2-2-2-2-2-|
----------------------------------|----------------------------------|
--3-3-----------------------------|----------------------------------|

  S S S S S S S S S S S S S S S S    S S S S S S S S S S S S S S S S
--4---4-----------0-----------0---|--0---0---------------------------|
--2-2-2-2-2-2-2-2-----------------|------------------0-----------0---|
------------------3-3-3-3-3-3-3-3-|--3-3-3-3-3-3-3-3-----------------|
----------------------------------|------------------3-3-3-3-3-3-3-3-|

  S S S S S S S S S S S S S S S S    S S S S S S S S S S S S S S S S
------2-----------4-----------4---|--4---4-----------4-----------4---|
--0---0-0-0-0-0-0-2-2-2-2-2-2-2-2-|--2-2-2-2-2-2-2-2-2-2-2-2-2-2-2-2-|
----------------------------------|----------------------------------|
--3-3-----------------------------|----------------------------------|

  S S S S S S S S S S S S S S S S    S S S S S S S S S S S S S S S S
--4---4-----------0-----------0---|--0---0---------------------------|
--2-2-2-2-2-2-2-2-----------------|------------------0-----------0---|
------------------3-3-3-3-3-3-3-3-|--3-3-3-3-3-3-3-3-----------------|
----------------------------------|------------------3-3-3-3-3-3-3-3-|

  S S S S S S S S S S S S S S S S    S S S S S S S S S S S S S S S S
------2-----------4-----------4---|--4---4-----------4-----------4---|
--0---0-0-0-0-0-0-2-2-2-2-2-2-2-2-|--2-2-2-2-2-2-2-2-2-2-2-2-2-2-2-2-|
----------------------------------|----------------------------------|
--3-3-----------------------------|----------------------------------|

  S S S S S S S S S S S S S S S S    S S S S S S S S S S S S S S S S
--4---4-----------0-----------0---|--0---0---------------------------|
--2-2-2-2-2-2-2-2-----------------|------------------0-----------0---|
------------------3-3-3-3-3-3-3-3-|--3-3-3-3-3-3-3-3-----------------|
----------------------------------|------------------3-3-3-3-3-3-3-3-|

  S S S S S S S S S S S S S S S S    S S S S S S S S S S S S S S S S
------2-----------4-----------4---|--4---9-----------9-----------9---|
--0---0-0-0-0-0-0-2-2-2-2-2-2-2-2-|--2-2-7-7-7-7-7-7-7-7-7-7-7-7-7-7-|
----------------------------------|----------------------------------|
--3-3-----------------------------|----------------------------------|

  S S S S S S S S S S S S S S S S    S S S S S S S S S S S S S S S S
--9---9-----------5-----------5---|--5---5-----------0-----------0---|
--7-7-7-7-7-7-7-7-3-3-3-3-3-3-3-3-|--3-3-3-3-3-3-3-3-----------------|
----------------------------------|------------------3-3-3-3-3-3-3-3-|
----------------------------------|----------------------------------|

  S S S S S S S S S S S S S S S S    S S S S S S S S S S S S S S S S
--0---7-0-0-0-0-0-9-----------9---|--9---9-----------9-----------9---|
------5-----------7-7-7-7-7-7-7-7-|--7-7-7-7-7-7-7-7-7-7-7-7-7-7-7-7-|
--3-3-----------------------------|----------------------------------|
----------------------------------|----------------------------------|

  S S S S S S S S S S S S S S S S    S S S S S S S S S S S S S S S S
--9---9-----------5-----------5---|--5---5-----------0-----------0---|
--7-7-7-7-7-7-7-7-3-3-3-3-3-3-3-3-|--3-3-3-3-3-3-3-3-----------------|
----------------------------------|------------------3-3-3-3-3-3-3-3-|
----------------------------------|----------------------------------|

  S S S S S S S S S S S S S S S S    S S S S S S S S S S S S S S S S
--0---7-0-0-0-0-0-9-----------9---|--9---9-----------9-----------9---|
------5-----------7-7-7-7-7-7-7-7-|--7-7-7-7-7-7-7-7-7-7-7-7-7-7-7-7-|
--3-3-----------------------------|----------------------------------|
----------------------------------|----------------------------------|

  S S S S S S S S S S S S S S S S    S S S S S S S S S S S S S S S S
--9---9-----------5-----------5---|--5---5-----------0-----------0---|
--7-7-7-7-7-7-7-7-3-3-3-3-3-3-3-3-|--3-3-3-3-3-3-3-3-----------------|
----------------------------------|------------------3-3-3-3-3-3-3-3-|
----------------------------------|----------------------------------|

  S S S S S S S S S S S S S S S S    S S S S S S S S S S S S S S S S
--0---7-0-0-0-0-0-9-----------9---|--9---9-----------9-----------9---|
------5-----------7-7-7-7-7-7-7-7-|--7-7-7-7-7-7-7-7-7-7-7-7-7-7-7-7-|
--3-3-----------------------------|----------------------------------|
----------------------------------|----------------------------------|

  S S S S S S S S S S S S S S S S    S S S S S S S S S S S S S S S S
--9---9-----------5-----------5---|--5---5-----------0-----------0---|
--7-7-7-7-7-7-7-7-3-3-3-3-3-3-3-3-|--3-3-3-3-3-3-3-3-----------------|
----------------------------------|------------------3-3-3-3-3-3-3-3-|
----------------------------------|----------------------------------|

  S S S S S S S S S S S S S S S S    S S S S S S S S S S S S S S S S
--0---7-0-0-0-0-0-9-----------9---|--9-------------------------------|
------5-----------7-7-7-7-7-7-7-7-|--7-7-9-----------9-----------9---|
--3-3-----------------------------|------7-7-7-7-7-7-7-7-7-7-7-7-7-7-|
----------------------------------|----------------------------------|

  S S S S S S S S S S S S S S S S    S S S S S S S S S S S S S S S S
------------------0-----------0---|--0---0---------------------------|
--9---9---------------------------|------------------0-----------0---|
--7-7-7-7-7-7-7-7-----------------|----------------------------------|
------------------8-8-8-8-8-8-8-8-|--8-8-8-8-8-8-8-8-3-3-3-3-3-3-3-3-|

  S S S S S S S S S S S S S S S S    S S S S S S S S S S S S S S S S
------2-----------4-----------4---|--4---4-----------4-----------4---|
--0---0-0-0-0-0-0-2-2-2-2-2-2-2-2-|--2-2-2-2-2-2-2-2-2-2-2-2-2-2-2-2-|
----------------------------------|----------------------------------|
--3-3-----------------------------|----------------------------------|

  S S S S S S S S S S S S S S S S    S S S S S S S S S S S S S S S S
--4---4-----------0-----------0---|--0---0---------------------------|
--2-2-2-2-2-2-2-2-----------------|------------------0-----------0---|
------------------3-3-3-3-3-3-3-3-|--3-3-3-3-3-3-3-3-----------------|
----------------------------------|------------------3-3-3-3-3-3-3-3-|

  S S S S S S S S S S S S S S S S    S S S S S S S S S S S S S S S S
------2-----------4-----------4---|--4---4-----------4-----------4---|
--0---0-0-0-0-0-0-2-2-2-2-2-2-2-2-|--2-2-2-2-2-2-2-2-2-2-2-2-2-2-2-2-|
----------------------------------|----------------------------------|
--3-3-----------------------------|----------------------------------|

  S S S S S S S S S S S S S S S S    S S S S S S S S S S S S S S S S
--4---4-----------0-----------0---|--0---0---------------------------|
--2-2-2-2-2-2-2-2-----------------|------------------0-----------0---|
------------------3-3-3-3-3-3-3-3-|--3-3-3-3-3-3-3-3-----------------|
----------------------------------|------------------3-3-3-3-3-3-3-3-|

  S S S S S S S S S S S S S S S S    S S S S S S S S S S S S S S S S
------2-----------4-----------4---|--4---4-----------4-----------4---|
--0---0-0-0-0-0-0-2-2-2-2-2-2-2-2-|--2-2-2-2-2-2-2-2-2-2-2-2-2-2-2-2-|
----------------------------------|----------------------------------|
--3-3-----------------------------|----------------------------------|

  S S S S S S S S S S S S S S S S    S S S S S S S S S S S S S S S S
--4---4-----------0-----------0---|--0---0---------------------------|
--2-2-2-2-2-2-2-2-----------------|------------------0-----------0---|
------------------3-3-3-3-3-3-3-3-|--3-3-3-3-3-3-3-3-----------------|
----------------------------------|------------------3-3-3-3-3-3-3-3-|

  S S S S S S S S S S S S S S S S    S S E  E  E  E  E  E  E
------2-----------4-----------4---|--4------------0--0--0-----|
--0---0-0-0-0-0-0-2-2-2-2-2-2-2-2-|--2-2-------------------0--|
----------------------------------|------3--3--3--------------|
--3-3-----------------------------|---------------------------|

  E  E  E  E  E  E  E  E     E  E  E  E  E  E  E  E
--------2--2--2--------4--|--------------0--0--0-----|
--0--0-----------2--2-----|-----------------------0--|
--------------------------|-----3--3--3--------------|
--------------------------|--------------------------|

  Q    S S E  E  E  E  E     E  E  E  E  E  E  E  E
-------5-7-7--7--7--5-----|--------------0--0--0-----|
--L--------------------7--|-----------------------0--|
--------------------------|--5--3--3--3--------------|
--------------------------|--------------------------|

  E  E  E  E  E  E  E  E     E  E  E  E  E  E  E  E
--------2--2--2--------4--|--------------------------|
--0--0-----------2--2-----|--------------0--0--0--2--|
--------------------------|-----3--3--3--------------|
--------------------------|--------------------------|

  Q    S S E  E  E  E  E     E  E  E  E  E  E  E  E
-------7-9-9--9--9--7-----|--------------0--0--0-----|
--L--------------------9--|--7--------------------0--|
--------------------------|--------------------------|
--------------------------|-----8--8--8--------------|

  E  E  E  E  E  E  E  E     E  E  E  E  E  E  E  E
--------2--2--2--------4--|--------------0--0--0-----|
--0--0-----------2--2-----|-----------------------0--|
--------------------------|-----3--3--3--------------|
--------------------------|--------------------------|

  Q    S S E  E  E  E  E     E  E  E  E  E  E  E  E
-------5-7-7--7--7--5-----|--------------0--0--0-----|
--L--------------------7--|-----------------------0--|
--------------------------|--5--3--3--3--------------|
--------------------------|--------------------------|

  E  E  E  E  E  E  E  E     E  E  E  E  E  E  E  E
--------2--2--2--------4--|--------------------------|
--0--0-----------2--2-----|--------------0--0--0--2--|
--------------------------|-----3--3--3--------------|
--------------------------|--------------------------|

  E  E  E  E  E  E  E  E     E  E  E  E  E  E.  T T E
--------------------------|----------------------------|
--2--2--2--2--2--2--2--2--|--2--2--2--2--2--2---L---2--|
--------------------------|----------------------------|
--------------------------|----------------------------|

  S. T E  S S S S S E  S S S S S    S S S S S S S S S E  S S S E
----------2-4-9-----7----9---7---|--7-9-------4-9-----7----9-7----|
--L----2--------9-7----7---7---7-|----------7-----9-7----7-----9--|
---------------------------------|------7-7-----------------------|
---------------------------------|--------------------------------|

  S. T S S S S S S S E  S S S S S    S S S S S S S S S E  S  T  T  S  E
-------------4-9-----7----9---7---|--7-9-------4-9-----7--4-12-14-12-----|
--L--------7-----9-7----7---7---7-|----------7-----9-7---------------14--|
-------7-7------------------------|------7-7-----------------------------|
----------------------------------|--------------------------------------|

  S. T  Q    Q     E  E  E     E   E  E  Q    E  E  E
----------------------------|--------------------------|
--L-------------------------|--------------------0-----|
------------------10--9-----|---------7----------------|
-------12-------------------|-----10----------8-----7--|

  E  Q    Q    E  E  E     E  E  E  Q    E  E  E     E  E  Q    Q    E  E
---------------0--------|-------------------------|------------------0-----|
------------------4-----|-----0--2----------0-----|--------2------------4--|
-----7------------------|----------------3-----2--|--3--2------------------|
--8---------------------|-------------------------|------------------------|

  Q    E  E  Q    E  E     E  E  Q    Q    E  E     Q    E  E  E  E  E  E
------------------------|------------------0-----|-------------------------|
-------0--2----------0--|--------2------------4--|-------0--2--------------|
------------------3-----|--2--3------------------|-------------2--3--2--3--|
------------------------|------------------------|-------------------------|

  E.  T T E.  E  S E.  E  S    S S E  E.  E  S E.  E  S
-------------------2---2--2-|--2-0-------------2---2--2-|
----------------------------|------2--------------------|
--2---L---0---0--0----------|---------0---0--0----------|
----------------------------|---------------------------|

  S S E  E.  E  S E.  E  S    S S E  E.  E  S E.  E  S
--2-0-------------2---2--2-|--2-0-------------2---2--2-|
------2--------------------|------2--------------------|
---------0---0--0----------|---------0---0--0----------|
---------------------------|---------------------------|

  S S E  E.  E  S E.  E  S    S S E  E.  E  S E.  E  S
--2-0-------------7---7--7-|--7-5-------------7---7--7-|
------2--0---0--0----------|------7--------------------|
---------------------------|---------5---5--5----------|
---------------------------|---------------------------|

  S S E  E.  E  S E.  E  S    S S E  E.  E  S E.  E  S
--7-5-------------7---7--7-|--7-5-------------7---7--7-|
------7--------------------|------7--------------------|
---------5---5--5----------|---------5---5--5----------|
---------------------------|---------------------------|

  S S E  E  E  E  E  E  E     E  E  E  E  E  E  E  E
--7-5----------------------|--0--0--0--0--0--0--0--0--|
------7--------------------|--------------------------|
---------7--7--7--7--7--7--|--------------------------|
---------------------------|--------------------------|

  E  E  E  E  E  E  E  E     E  E  E  E  E  E  E  E
--0-----------------------|--------------------------|
-----0--------------------|--0--0--0--0--0--0--0--0--|
--------3--3--3--3--3--3--|--------------------------|
--------------------------|--------------------------|

  E  E  E  E  E  E  E  E     E  E  E  E  E  E  E  E
--------------------------|--0--0--0--0--0--0--0--0--|
--0--1--2--2--2--2--2--2--|--------------------------|
--------------------------|--------------------------|
--------------------------|--------------------------|

  E  E  E  E  E  E  E  E     E  E  E  E  E  E  E  E
--0-----------------------|--------------------------|
-----0--------------------|--0--0--0--0--0--0--0--0--|
--------3--3--3--3--3--3--|--------------------------|
--------------------------|--------------------------|

  E  E  E  E  E  E  E  E     E  E  E  E  E  E  E  E
--------------------------|--0--0--0--0--0--0--0--0--|
--0--1--2--2--2--2--2--2--|--------------------------|
--------------------------|--------------------------|
--------------------------|--------------------------|

  E  E  E  E  E  E  E  E     E  E  E  E  E  E  E  E
--0-----------------------|--------------------------|
-----0--------------------|--0--0--0--0--0--0--0--0--|
--------3--3--3--3--3--3--|--------------------------|
--------------------------|--------------------------|

  E  E  E  E  E  E  E  E     E  E  E  E  E  E  E  E
--------------------------|--0--0--0--0--0--0--0--0--|
--0--1--2--2--2--2--2--2--|--------------------------|
--------------------------|--------------------------|
--------------------------|--------------------------|

  E  E  E  E  E  E  E  E     E  E  E  E  E  E  E  E
--0-----------------------|--------------------------|
-----0--------------------|--0--0--0--0--0--0--0--0--|
--------3--3--3--3--3--3--|--------------------------|
--------------------------|--------------------------|

  E  E  E  S S S S S E  S S S    S S S S S S S S S S S E  S S S
-----------2-4-9-----7----9---|--7---7-9-------4-9-----7----9-7-|
--0--1--2--------9-7----7---7-|----7---------7-----9-7----7-----|
------------------------------|----------7-7--------------------|
------------------------------|---------------------------------|

  E.  T T S S S S S S S E  S S S    S S S S S S S S S S S E  S  T  T  S
----------------4-9-----7----9---|--7---7-9-------4-9-----7--4-12-14-12-|
--9---L-------7-----9-7----7---7-|----7---------7-----9-7---------------|
----------7-7--------------------|----------7-7-------------------------|
---------------------------------|--------------------------------------|

   E.  T T  S  T  T  S  S  S  S  S  E   S  E
---------------------------------------12-12--|
--14---L---------------------12-12-12---------|
--------------12-12-12-12-12------------------|
-----------12---------------------------------|

  S  S  S  S  S  T  T  S  S  S  S  S  E   S  E
--L-12-12-12-12---------------------------------|
----------------12-12-12-12-12------------------|
-------------------------------12-12-12---------|
-----------------------------------------12-12--|

  E.  T T  S  T  T  S  S  S  S  S  E   S  E
--------------------------------------12-12--|
----------------------------12-12-12---------|
-------------12-12-12-12-12------------------|
--L---L---12---------------------------------|

  S  S  S  S  S  T  T  S  S  S  S  S  E   S  E     E.  T H        Q    T
--L-12-12-12-12---------------------------------|------------------------||
----------------12-12-12-12-12------------------|------------------------||
-------------------------------12-12-12---------|------------------------||
-----------------------------------------12-12--|--L---L-----------------||

Duration Legend
---------------

E - 8th
. - note dotted
----------------
						
# Artist Title Tabdesignator