Iron Maiden

Purgatory


							
Tempo: 280 Bpm
Tuning: Standard Bass Tuning
G||-------------------|-------------------|-------------------|
D||-------------------|-------------------|-------------------|
A||-------------------|-------------------|-------------------|
E||-------------------|-------------------|-------------------|

  H.           E.  T T    E  H.           E     H.           E.  T T
-----------------------|---------------------|-----------------------|
-----------------------|---------------------|-----------------------|
---------------0---L---|--2------------------|---------------0---L---|
-----------------------|---------------------|-----------------------|

  W                   H.           E.  S    E  E  E  Q    S. T Q
-------------------|---------------------|--2--4-----4----L----4----|
-------------------|---------------------|--------------------------|
--2----------------|--L------------L-----|--------------------------|
-------------------|---------------------|--------------------------|

  E.  T T E.  T T E  E  E  E     E  E  E  Q    S. T Q
--L---L---4---L---4--4--4--4--|--2--4-----4----L----4----|
------------------------------|--------------------------|
------------------------------|--------------------------|
------------------------------|--------------------------|

  E.  T T E.  T T E  E  E  E     E  E  E  Q    S. T Q
--L---L---4---L---4--4--4--4--|--0--2-----2----L----2----|
------------------------------|--------------------------|
------------------------------|--------------------------|
------------------------------|--------------------------|

  E.  T T E.  T T E  E  E  E     E  E  E  Q    S. T Q
--L---L---2---L---2--2--2--2--|--2--4-----4----L----4----|
------------------------------|--------------------------|
------------------------------|--------------------------|
------------------------------|--------------------------|

  E.  T T E.  T T E  E  E  E     E  E  E  Q    S. T Q
--L---L---4---L---4--4--4--4--|--2--4-----4----L----4----|
------------------------------|--------------------------|
------------------------------|--------------------------|
------------------------------|--------------------------|

  E.  T T E.  T T E  E  E  E     E  E  E  Q    S. T Q
--L---L---4---L---4--4--4--4--|--2--4-----4----L----4----|
------------------------------|--------------------------|
------------------------------|--------------------------|
------------------------------|--------------------------|

  E.  T T E.  T T E  E  E  E     E  E  E  Q    S. T Q
--L---L---4---L---4--4--4--4--|--0--2-----2----L----2----|
------------------------------|--------------------------|
------------------------------|--------------------------|
------------------------------|--------------------------|

  E.  T T E.  T T E  E  E  E     E  E  E  E  E  E  E  E
--L---L---2---L---2--2--2--2--|--------------------------|
------------------------------|--------------------------|
------------------------------|--2--2--2--2--2--2--2--2--|
------------------------------|--------------------------|

  Q    S. T Q    S. T E.  T T    E  E  E  E  E  E  E  E
------------------------------|--------------------------|
--4----L----2----L----0---L---|--------------------------|
------------------------------|--2--2--2--2--2--2--2--2--|
------------------------------|--------------------------|

  Q    S. T Q    S. T E.  T T    E  E  E  E  E  E  E  E
------------------------------|--------------------------|
--4----L----2----L----0---L---|--------------------------|
------------------------------|--2--2--2--2--2--2--2--2--|
------------------------------|--------------------------|

  Q    S. T Q    S. T E.  T T    E  E  E  E  E  E  E  E
------------------------------|--------------------------|
--4----L----2----L----0---L---|--------------------------|
------------------------------|--2--2--2--2--2--2--2--2--|
------------------------------|--------------------------|

  Q    S. T Q    S. T E.  T T    E  E  E  Q    S. T Q
------------------------------|--2--4-----4----L----4----|
--4----L----2----L----0---L---|--------------------------|
------------------------------|--------------------------|
------------------------------|--------------------------|

  E.  T T E.  T T E  E  E  E     E  E  E  Q    S. T Q
--L---L---4---L---4--4--4--4--|--2--4-----4----L----4----|
------------------------------|--------------------------|
------------------------------|--------------------------|
------------------------------|--------------------------|

  E.  T T E.  T T E  E  E  E     E  E  E  Q    S. T Q
--L---L---4---L---4--4--4--4--|--0--2-----2----L----2----|
------------------------------|--------------------------|
------------------------------|--------------------------|
------------------------------|--------------------------|

  E.  T T E.  T T E  E  E  E     E  E  E  Q    S. T Q
--L---L---2---L---2--2--2--2--|--2--4-----4----L----4----|
------------------------------|--------------------------|
------------------------------|--------------------------|
------------------------------|--------------------------|

  E.  T T E.  T T E  E  E  E     E  E  E  Q    S. T Q
--L---L---4---L---4--4--4--4--|--2--4-----4----L----4----|
------------------------------|--------------------------|
------------------------------|--------------------------|
------------------------------|--------------------------|

  E.  T T E.  T T E  E  E  E     E  E  E  Q    S. T Q
--L---L---4---L---4--4--4--4--|--2--4-----4----L----4----|
------------------------------|--------------------------|
------------------------------|--------------------------|
------------------------------|--------------------------|

  E.  T T E.  T T E  E  E  E     E  E  E  Q    S. T Q
--L---L---4---L---4--4--4--4--|--0--2-----2----L----2----|
------------------------------|--------------------------|
------------------------------|--------------------------|
------------------------------|--------------------------|

  E.  T T E.  T T E  E  E  E     E  E  E  E  E  E  E  E
--L---L---2---L---2--2--2--2--|--------------------------|
------------------------------|--------------------------|
------------------------------|--2--2--2--2--2--2--2--2--|
------------------------------|--------------------------|

  Q    S. T Q    S. T E.  T T    E  E  E  E  E  E  E  E
------------------------------|--------------------------|
--4----L----2----L----0---L---|--------------------------|
------------------------------|--2--2--2--2--2--2--2--2--|
------------------------------|--------------------------|

  Q    S. T Q    S. T E.  T T    E  E  E  E  E  E  E  E
------------------------------|--------------------------|
--4----L----2----L----0---L---|--------------------------|
------------------------------|--2--2--2--2--2--2--2--2--|
------------------------------|--------------------------|

  Q    S. T Q    S. T E.  T T    E  E  E  E  E  E  E  E
------------------------------|--------------------------|
--4----L----2----L----0---L---|--------------------------|
------------------------------|--2--2--2--2--2--2--2--2--|
------------------------------|--------------------------|

  Q    S. T Q    S. T E.  T T    E.  T T E  E.  T T E  E.  T T
------------------------------|--------------------------------|
--4----L----2----L----0---L---|--0---L---0--0---L---0--0---L---|
------------------------------|--------------------------------|
------------------------------|--------------------------------|

  E.  T T E  E.  T T E  E.  T T    E.  T T E  E.  T T E  E.  T T
--------------------------------|--------------------------------|
--0---L---0--0---L---0--0---L---|--------------------------------|
--------------------------------|--1---L---1--1---L---1--1---L---|
--------------------------------|--------------------------------|

  E.  T T E  E.  T T E  E.  T T    E.  T T E  E.  T T E  E.  T T
--------------------------------|--------------------------------|
--------------------------------|--0---L---0--0---L---0--0---L---|
--3---L---3--3---L---3--3---L---|--------------------------------|
--------------------------------|--------------------------------|

  E.  T T E  E.  T T E  E.  T T    E.  T T E  E.  T T E  E.  T T
--------------------------------|--------------------------------|
--0---L---0--0---L---0--0---L---|--------------------------------|
--------------------------------|--1---L---1--1---L---1--1---L---|
--------------------------------|--------------------------------|

  E.  T T E  E.  T T E  E.  T T    E.  T T E  E.  T T E  E.  T T
--------------------------------|--------------------------------|
--------------------------------|--0---L---0--0---L---0--0---L---|
--3---L---3--3---L---3--3---L---|--------------------------------|
--------------------------------|--------------------------------|

  E.  T T E  E.  T T E  E.  T T    E.  T T E  E.  T T E  E.  T T
--------------------------------|--------------------------------|
--0---L---0--0---L---0--0---L---|--------------------------------|
--------------------------------|--1---L---1--1---L---1--1---L---|
--------------------------------|--------------------------------|

  E.  T T E  E.  T T E  E.  T T    E.  T T E  E.  T T E  E.  T T
--------------------------------|--------------------------------|
--------------------------------|--0---L---0--0---L---0--0---L---|
--3---L---3--3---L---3--3---L---|--------------------------------|
--------------------------------|--------------------------------|

  E.  T T E  E.  T T E  E.  T T    E.  T T E  E.  T T E  E.  T T
--------------------------------|--------------------------------|
--0---L---0--0---L---0--0---L---|--------------------------------|
--------------------------------|--1---L---1--1---L---1--1---L---|
--------------------------------|--------------------------------|

  E.  T T E  E.  T T E  E.  T T    E  E  E  Q    S. T Q
--------------------------------|--2--4-----4----L----4----|
--------------------------------|--------------------------|
--3---L---3--3---L---3--3---L---|--------------------------|
--------------------------------|--------------------------|

  E.  T T E.  T T E  E  E  E     E  E  E  Q    S. T Q
--L---L---4---L---4--4--4--4--|--2--4-----4----L----4----|
------------------------------|--------------------------|
------------------------------|--------------------------|
------------------------------|--------------------------|

  E.  T T E.  T T E  E  E  E     E  E  E  Q    S. T Q
--L---L---4---L---4--4--4--4--|--0--2-----2----L----2----|
------------------------------|--------------------------|
------------------------------|--------------------------|
------------------------------|--------------------------|

  E.  T T E.  T T E  E  E  E     E  E  E  Q    S. T Q
--L---L---2---L---2--2--2--2--|--2--4-----4----L----4----|
------------------------------|--------------------------|
------------------------------|--------------------------|
------------------------------|--------------------------|

  E.  T T E.  T T E  E  E  E     E  E  E  Q    S. T Q
--L---L---4---L---4--4--4--4--|--2--4-----4----L----4----|
------------------------------|--------------------------|
------------------------------|--------------------------|
------------------------------|--------------------------|

  E.  T T E.  T T E  E  E  E     E  E  E  Q    S. T Q
--L---L---4---L---4--4--4--4--|--2--4-----4----L----4----|
------------------------------|--------------------------|
------------------------------|--------------------------|
------------------------------|--------------------------|

  E.  T T E.  T T E  E  E  E     E  E  E  Q    S. T Q
--L---L---4---L---4--4--4--4--|--0--2-----2----L----2----|
------------------------------|--------------------------|
------------------------------|--------------------------|
------------------------------|--------------------------|

  E.  T T E.  T T E  E  E  E     E  E  E  E  E  E  E  E
--L---L---2---L---2--2--2--2--|--------------------------|
------------------------------|--------------------------|
------------------------------|--2--2--2--2--2--2--2--2--|
------------------------------|--------------------------|

  Q    S. T Q    S. T E.  T T    E  E  E  E  E  E  E  E
------------------------------|--------------------------|
--4----L----2----L----0---L---|--------------------------|
------------------------------|--2--2--2--2--2--2--2--2--|
------------------------------|--------------------------|

  Q    S. T Q    S. T E.  T T    E  E  E  E  E  E  E  E
------------------------------|--------------------------|
--4----L----2----L----0---L---|--------------------------|
------------------------------|--2--2--2--2--2--2--2--2--|
------------------------------|--------------------------|

  Q    S. T Q    S. T E.  T T    E  E  E  E  E  E  E  E
------------------------------|--------------------------|
--4----L----2----L----0---L---|--------------------------|
------------------------------|--2--2--2--2--2--2--2--2--|
------------------------------|--------------------------|

  Q    S. T Q    S. T E.  T T    E.  T T E  E.  T T E  E.  T T
------------------------------|--------------------------------|
--4----L----2----L----0---L---|--------------------------------|
------------------------------|--3---L---3--3---L---3--3---L---|
------------------------------|--------------------------------|

  E.  T T E  E.  T T E  E.  T T    Q    S. T Q    E  E.  T T
--------------------------------|----------------------------|
--------------------------------|--0----L----0----0--0---L---|
--3---L---3--3---L---3--3---L---|----------------------------|
--------------------------------|----------------------------|

  Q    S. T Q    E  E.  T T    Q    S. T Q    E  E.  T T
----------------------------|----------------------------|
--0----L----0----0--0---L---|----------------------------|
----------------------------|--1----L----1----1--1---L---|
----------------------------|----------------------------|

  Q    S. T Q    E  E.  T T    Q    S. T Q    E  E.  T T
----------------------------|----------------------------|
----------------------------|----------------------------|
--1----L----1----1--1---L---|--3----L----3----3--3---L---|
----------------------------|----------------------------|

  Q    S. T Q    E  E.  T T    Q    S. T E  E  E  E  E
----------------------------|--2----L----5--7--5--------|
----------------------------|---------------------7--5--|
--3----L----3----3--3---L---|---------------------------|
----------------------------|---------------------------|

  E  E  E  E  E  E  E  E     Q    S. T Q    E  E.  T T
--------------0-----------|----------------------------|
--7--5--3--2-----3--2--0--|--0----L----0----0--0---L---|
--------------------------|----------------------------|
--------------------------|----------------------------|

  Q    S. T Q    E  E.  T T    Q    S. T Q    E  E.  T T
----------------------------|----------------------------|
--0----L----0----0--0---L---|----------------------------|
----------------------------|--1----L----1----1--1---L---|
----------------------------|----------------------------|

  Q    S. T Q    E  E.  T T    Q    S. T Q    E  E.  T T
----------------------------|----------------------------|
----------------------------|----------------------------|
--1----L----1----1--1---L---|--3----L----3----3--3---L---|
----------------------------|----------------------------|

  Q    S. T Q    E  E.  T T    Q    S. T Q    E  E.  T T
----------------------------|----------------------------|
----------------------------|--0----L----0----0--0---L---|
--3----L----3----3--3---L---|----------------------------|
----------------------------|----------------------------|

  E  E  E  E  E  E  E  E     Q    S. T Q    E  E.  T T
--------------------------|----------------------------|
--0--0--0--0--0--0--0--0--|--0----L----0----0--0---L---|
--------------------------|----------------------------|
--------------------------|----------------------------|

  Q    S. T Q    E  E.  T T    Q    S. T Q    E  E.  T T
----------------------------|----------------------------|
--0----L----0----0--0---L---|----------------------------|
----------------------------|--1----L----1----1--1---L---|
----------------------------|----------------------------|

  Q    S. T Q    E  E.  T T    Q    S. T Q    E  E.  T T
----------------------------|----------------------------|
----------------------------|----------------------------|
--1----L----1----1--1---L---|--3----L----3----3--3---L---|
----------------------------|----------------------------|

  Q    S. T Q    E  E.  T T    Q    S. T E  E  E  E.  T T
----------------------------|-----------------------------|
----------------------------|--0----L----0--0--0--0---L---|
--3----L----3----3--3---L---|-----------------------------|
----------------------------|-----------------------------|

  E.  T T E.  T T Q.     S S    Q    S. T Q    E  E.  T T
-----------------------------|----------------------------|
--0---L---0---L---0------L---|--0----L----0----0--0---L---|
-----------------------------|----------------------------|
-----------------------------|----------------------------|

  Q    S. T Q    E  E.  T T    Q    S. T Q    E  E.  T T
----------------------------|----------------------------|
--0----L----0----0--0---L---|----------------------------|
----------------------------|--1----L----1----1--1---L---|
----------------------------|----------------------------|

  Q    S. T Q    E  E.  T T    Q    S. T Q    E  E.  T T
----------------------------|----------------------------|
----------------------------|----------------------------|
--1----L----1----1--1---L---|--3----L----3----3--3---L---|
----------------------------|----------------------------|

  Q    S. T Q    E  E.  T T    W                   H.           E.  S
----------------------------|-------------------|---------------------|
----------------------------|--0----------------|--L------------L-----|
--3----L----3----3--3---L---|-------------------|---------------------|
----------------------------|-------------------|---------------------|

  W                   W                   W                   W
-------------------|-------------------|-------------------|-------------------|
-------------------|-------------------|-------------------|-------------------|
-------------------|-------------------|-------------------|-------------------|
-------------------|-------------------|-------------------|-------------------|

  E  E  E  E  E  E  E  E     E  E  E  E  E  E  E  E
--------------------------|--------------------------|
--------------------------|--------------------------|
--2--2--2--2--2--2--2--2--|--2--2--2--2--2--2--2--2--|
--------------------------|--------------------------|

  E  E  E  E  E  E  E  E     E  E  E  E  E.  T T E.  T T
--------------------------|------------------------------|
--------------------------|------------------------------|
--2--2--2--2--2--2--2--2--|--2--2--2--2--2---L---2---L---|
--------------------------|------------------------------|

  E  E  E  Q    S. T Q       E.  T T E.  T T E  E  E  E
--2--4-----4----L----4----|--L---L---4---L---4--4--4--4--|
--------------------------|------------------------------|
--------------------------|------------------------------|
--------------------------|------------------------------|

  E  E  E  Q    S. T Q       E.  T T E.  T T E  E  E  E
--2--4-----4----L----4----|--L---L---4---L---4--4--4--4--|
--------------------------|------------------------------|
--------------------------|------------------------------|
--------------------------|------------------------------|

  E  E  E  Q    S. T Q       E.  T T E.  T T E  E  E  E
--0--2-----2----L----2----|--L---L---2---L---2--2--2--2--|
--------------------------|------------------------------|
--------------------------|------------------------------|
--------------------------|------------------------------|

  E  E  E  Q    S. T Q       E.  T T E.  T T E  E  E  E
--2--4-----4----L----4----|--L---L---4---L---4--4--4--4--|
--------------------------|------------------------------|
--------------------------|------------------------------|
--------------------------|------------------------------|

  E  E  E  Q    S. T Q       E.  T T E.  T T E  E  E  E
--2--4-----4----L----4----|--L---L---4---L---4--4--4--4--|
--------------------------|------------------------------|
--------------------------|------------------------------|
--------------------------|------------------------------|

  E  E  E  Q    S. T Q       E.  T T E.  T T E  E  E  E
--2--4-----4----L----4----|--L---L---4---L---4--4--4--4--|
--------------------------|------------------------------|
--------------------------|------------------------------|
--------------------------|------------------------------|

  E  E  E  Q    S. T Q       E.  T T E.  T T E  E  E  E
--0--2-----2----L----2----|--L---L---2---L---2--2--2--2--|
--------------------------|------------------------------|
--------------------------|------------------------------|
--------------------------|------------------------------|

  E  E  E  E  E  E  E  E     Q    S. T Q    S. T E.  T T
--------------------------|------------------------------|
--------------------------|--4----L----2----L----0---L---|
--2--2--2--2--2--2--2--2--|------------------------------|
--------------------------|------------------------------|

  E  E  E  E  E  E  E  E     Q    S. T Q    S. T E.  T T
--------------------------|------------------------------|
--------------------------|--4----L----2----L----0---L---|
--2--2--2--2--2--2--2--2--|------------------------------|
--------------------------|------------------------------|

  E  E  E  E  E  E  E  E     Q    S. T Q    S. T E.  T T
--------------------------|------------------------------|
--------------------------|--4----L----2----L----0---L---|
--2--2--2--2--2--2--2--2--|------------------------------|
--------------------------|------------------------------|

  E  E  E  E  E  E  E  E     Q    S. T Q    S. T E.  T T
--------------------------|------------------------------|
--------------------------|--4----L----2----L----0---L---|
--2--2--2--2--2--2--2--2--|------------------------------|
--------------------------|------------------------------|

  E  E  E  Q    S. T Q       E.  T T E.  T T E  E  E  E
--2--4-----4----L----4----|--L---L---4---L---4--4--4--4--|
--------------------------|------------------------------|
--------------------------|------------------------------|
--------------------------|------------------------------|

  E  E  E  Q    S. T Q       E.  T T E.  T T E  E  E  E
--2--4-----4----L----4----|--L---L---4---L---4--4--4--4--|
--------------------------|------------------------------|
--------------------------|------------------------------|
--------------------------|------------------------------|

  E  E  E  Q    S. T Q       E.  T T E.  T T E  E  E  E
--0--2-----2----L----2----|--L---L---2---L---2--2--2--2--|
--------------------------|------------------------------|
--------------------------|------------------------------|
--------------------------|------------------------------|

  E  E  E  Q    S. T Q       E.  T T E.  T T E  E  E  E
--2--4-----4----L----4----|--L---L---4---L---4--4--4--4--|
--------------------------|------------------------------|
--------------------------|------------------------------|
--------------------------|------------------------------|

  E  E  E  Q    S. T Q       E.  T T E.  T T E  E  E  E
--2--4-----4----L----4----|--L---L---4---L---4--4--4--4--|
--------------------------|------------------------------|
--------------------------|------------------------------|
--------------------------|------------------------------|

  E  E  E  Q    S. T Q       E.  T T E.  T T E  E  E  E
--2--4-----4----L----4----|--L---L---4---L---4--4--4--4--|
--------------------------|------------------------------|
--------------------------|------------------------------|
--------------------------|------------------------------|

  E  E  E  Q    S. T Q       E.  T T E.  T T E  E  E  E
--0--2-----2----L----2----|--L---L---2---L---2--2--2--2--|
--------------------------|------------------------------|
--------------------------|------------------------------|
--------------------------|------------------------------|

  E  E  E  E  E  E  E  E     Q    S. T Q    S. T E.  T T
--------------------------|------------------------------|
--------------------------|--4----L----2----L----0---L---|
--2--2--2--2--2--2--2--2--|------------------------------|
--------------------------|------------------------------|

  E  E  E  E  E  E  E  E     Q    S. T Q    S. T E.  T T
--------------------------|------------------------------|
--------------------------|--4----L----2----L----0---L---|
--2--2--2--2--2--2--2--2--|------------------------------|
--------------------------|------------------------------|

  E  E  E  E  E  E  E  E     Q    S. T Q    S. T E.  T T
--------------------------|------------------------------|
--------------------------|--4----L----2----L----0---L---|
--2--2--2--2--2--2--2--2--|------------------------------|
--------------------------|------------------------------|

  E  E  E  E  E  E  E  E     Q    S. T Q    S. T E.  T T
--------------------------|------------------------------|
--------------------------|--4----L----2----L----0---L---|
--2--2--2--2--2--2--2--2--|------------------------------|
--------------------------|------------------------------|

  E.  T T E  E.  T T E  E.  T T    E.  T T E  E.  T T E  E.  T T
--------------------------------|--------------------------------|
--0---L---0--0---L---0--0---L---|--0---L---0--0---L---0--0---L---|
--------------------------------|--------------------------------|
--------------------------------|--------------------------------|

  E.  T T E  E.  T T E  E.  T T    E.  T T E  E.  T T E  E.  T T
--------------------------------|--------------------------------|
--------------------------------|--------------------------------|
--1---L---1--1---L---1--1---L---|--3---L---3--3---L---3--3---L---|
--------------------------------|--------------------------------|

  E.  T T E  E.  T T E  E.  T T    E.  T T E  E.  T T E  E.  T T
--------------------------------|--------------------------------|
--0---L---0--0---L---0--0---L---|--0---L---0--0---L---0--0---L---|
--------------------------------|--------------------------------|
--------------------------------|--------------------------------|

  E.  T T E  E.  T T E  E.  T T    E.  T T E  E.  T T E  E.  T T
--------------------------------|--------------------------------|
--------------------------------|--------------------------------|
--1---L---1--1---L---1--1---L---|--3---L---3--3---L---3--3---L---|
--------------------------------|--------------------------------|

  E.  T T E  E.  T T E  E.  T T    E.  T T E  E.  T T E  E.  T T
--------------------------------|--------------------------------|
--0---L---0--0---L---0--0---L---|--0---L---0--0---L---0--0---L---|
--------------------------------|--------------------------------|
--------------------------------|--------------------------------|

  E.  T T E  E.  T T E  E.  T T    E.  T T E  E.  T T E  E.  T T
--------------------------------|--------------------------------|
--------------------------------|--------------------------------|
--1---L---1--1---L---1--1---L---|--3---L---3--3---L---3--3---L---|
--------------------------------|--------------------------------|

  E.  T T E  E.  T T E  E.  T T    E.  T T E  E.  T T E  E.  T T
--------------------------------|--------------------------------|
--0---L---0--0---L---0--0---L---|--0---L---0--0---L---0--0---L---|
--------------------------------|--------------------------------|
--------------------------------|--------------------------------|

  E.  T T E  E.  T T E  E.  T T    E.  T T E  E.  T T E  E.  T T
--------------------------------|--------------------------------|
--------------------------------|--------------------------------|
--1---L---1--1---L---1--1---L---|--3---L---3--3---L---3--3---L---|
--------------------------------|--------------------------------|

  Q    S. T Q    E  E.  T T    Q    S. T Q    E  E.  T T
----------------------------|----------------------------|
--0----L----0----0--0---L---|--0----L----0----0--0---L---|
----------------------------|----------------------------|
----------------------------|----------------------------|

  Q    S. T Q    E  E.  T T    Q    S. T Q    E  E.  T T
----------------------------|----------------------------|
----------------------------|----------------------------|
--1----L----1----1--1---L---|--1----L----1----1--1---L---|
----------------------------|----------------------------|

  Q    S. T Q    E  E.  T T    Q    S. T Q    E  E.  T T
----------------------------|----------------------------|
----------------------------|----------------------------|
--3----L----3----3--3---L---|--3----L----3----3--3---L---|
----------------------------|----------------------------|

  Q    S. T E  E  E  E  E     E  E  E  E  E  E  E  E
--2----L----5--7--5--------|--------------0-----------|
---------------------7--5--|--7--5--3--2-----3--2--0--|
---------------------------|--------------------------|
---------------------------|--------------------------|

  Q    S. T Q    E  E.  T T    Q    S. T Q    E  E.  T T
----------------------------|----------------------------|
--0----L----0----0--0---L---|--0----L----0----0--0---L---|
----------------------------|----------------------------|
----------------------------|----------------------------|

  Q    S. T Q    E  E.  T T    Q    S. T Q    E  E.  T T
----------------------------|----------------------------|
----------------------------|----------------------------|
--1----L----1----1--1---L---|--1----L----1----1--1---L---|
----------------------------|----------------------------|

  Q    S. T Q    E  E.  T T    Q    S. T Q    E  E.  T T
----------------------------|----------------------------|
----------------------------|----------------------------|
--3----L----3----3--3---L---|--3----L----3----3--3---L---|
----------------------------|----------------------------|

  Q    S. T Q    E  E.  T T    E  E  E  E  E  E  E  E
----------------------------|--------------------------|
--0----L----0----0--0---L---|--0--0--0--0--0--0--0--0--|
----------------------------|--------------------------|
----------------------------|--------------------------|

  Q    S. T Q    E  E.  T T    Q    S. T Q    E  E.  T T
----------------------------|----------------------------|
--0----L----0----0--0---L---|--0----L----0----0--0---L---|
----------------------------|----------------------------|
----------------------------|----------------------------|

  Q    S. T Q    E  E.  T T    Q    S. T Q    E  E.  T T
----------------------------|----------------------------|
----------------------------|----------------------------|
--1----L----1----1--1---L---|--1----L----1----1--1---L---|
----------------------------|----------------------------|

  Q    S. T Q    E  E.  T T    Q    S. T Q    E  E.  T T
----------------------------|----------------------------|
----------------------------|----------------------------|
--3----L----3----3--3---L---|--3----L----3----3--3---L---|
----------------------------|----------------------------|

  Q    S. T E  E  E  E.  T T    E.  T T E.  T T Q.     S S
-----------------------------|-----------------------------|
--0----L----0--0--0--0---L---|--0---L---0---L---0------L---|
-----------------------------|-----------------------------|
-----------------------------|-----------------------------|

  Q    S. T Q    E  E.  T T    Q    S. T Q    E  E.  T T
--2----L----2----0----------|--2----L----2----0----------|
--------------------3---L---|--------------------3---L---|
----------------------------|----------------------------|
----------------------------|----------------------------|

  Q    S. T Q    E  E.  T T    Q    S. T Q    E  E.  T T
--3----L----3----2--0---L---|--3----L----3----2--0---L---|
----------------------------|----------------------------|
----------------------------|----------------------------|
----------------------------|----------------------------|

  Q    S. T Q    E  E.  T T    Q    S. T Q    E  E.  T T    W
--5----L----5----3--2---L---|--5----L----5----3--2---L---|--7----------------|
----------------------------|----------------------------|-------------------|
----------------------------|----------------------------|-------------------|
----------------------------|----------------------------|-------------------|

  H.           E.  S    E  E  E  E  E  E  E  E     E  E  E  E  E  E  E  E
--L------------L-----|--7--7--7--7--7--7--7--7--|--7--7--7--7--7--7--7--7--|
---------------------|--------------------------|--------------------------|
---------------------|--------------------------|--------------------------|
---------------------|--------------------------|--------------------------|

  E  E  E  E  E  E  E  E     E  E  E  E  E  E  E  E
--7--7--7--7--7--7--7--7--|--7--7--7--7--7--7--7--7--|
--------------------------|--------------------------|
--------------------------|--------------------------|
--------------------------|--------------------------|

  E  E  E  E  E  E  E  E     H.           E.  S    E.  T H        Q    T
--7--7--7--7--7--7--7--7--|--7------------L-----|--7---L-----------------||
--------------------------|---------------------|------------------------||
--------------------------|---------------------|------------------------||
--------------------------|---------------------|------------------------||

Duration Legend
---------------

E - 8th
. - note dotted
----------------
						
# Artist Title Tabdesignator