Iron Maiden

Infinite Dreams


							
Tempo: Variable (stated when applicable)
Tuning: Standard Bass Tuning
138 Bpm

^    E.  T T E  E  E  E  E  E     E.  T T E  E  E  E  E  E
G||-------------0--4--0-----0--|-------------0--4--0-----0--|
D||--2---L---4-----------4-----|----------4-----------4-----|
A||----------------------------|--3---L---------------------|
E||----------------------------|----------------------------|

  E.  T T E  E  E  E  E  E     E.  T T E  E  E  E  E  E
-------------0--4--0-----0--|-------------0--4--0-----0--|
--0---L---4-----------4-----|----------4-----------4-----|
----------------------------|--3---L---------------------|
----------------------------|----------------------------|

  E.  T T E  E  E  E  E  E     E.  T T E  E  E  E  E  E
-------------0--4--0-----0--|-------------0--4--0-----0--|
--2---L---4-----------4-----|----------4-----------4-----|
----------------------------|--3---L---------------------|
----------------------------|----------------------------|

  E.  T T E  E  E  E  E  E     E.  T T E  E  E  E  E  E
-------------0--4--0-----0--|-------------0--4--0-----0--|
--0---L---4-----------4-----|----------4-----------4-----|
----------------------------|--3---L---------------------|
----------------------------|----------------------------|

  E.  T T E  E  E  E  E  E     E.  T T E  E  E  E  E  E
-------------0--4--0-----0--|-------------0--4--0-----0--|
--2---L---4-----------4-----|----------4-----------4-----|
----------------------------|--3---L---------------------|
----------------------------|----------------------------|

  E.  T T E  E  E  E  E  E     E.  T T E  E  E  E  E  E
-------------0--4--0-----0--|-------------0--4--0-----0--|
--0---L---4-----------4-----|----------4-----------4-----|
----------------------------|--3---L---------------------|
----------------------------|----------------------------|

  E.  T T E  E  E  E  E  E     E.  T T E  E  E  E  E  E
-------------0--4--0-----0--|-------------0--4--0-----0--|
--2---L---4-----------4-----|----------4-----------4-----|
----------------------------|--3---L---------------------|
----------------------------|----------------------------|

  E.  T T E  E  E  E  E  E     E.  T T E  E  E  E  E  E
-------------0--4--0-----0--|-------------0--4--0-----0--|
--0---L---4-----------4-----|----------4-----------4-----|
----------------------------|--3---L---------------------|
----------------------------|----------------------------|

                                              |-3-|

  Q    E  H        S S    Q    S. T Q    S. T S S S E     Q    E  H        S S
-----------------------|-------------------------------|-----------------------|
-------0--2--------L---|------------0----L----0-2-0----|-------0--2--------L---|
-----------------------|--3----L--------------------2--|-----------------------|
--0--------------------|-------------------------------|--0--------------------|

  Q.     S S E.  T T E.  T T    Q    E  H        S S
-----------------------------|-----------------------|
-------------0---L---2---L---|-------0--2--------L---|
--3------L-------------------|-----------------------|
-----------------------------|--0--------------------|

                      |-3-|

  Q    S. T Q    S. T S S S E     Q    E  H        S S
-------------------------------|-----------------------|
------------0----L----0-2-0----|-------0--2--------L---|
--3----L--------------------2--|-----------------------|
-------------------------------|--0--------------------|

                          |-3-|

  S S S S S S S S S S S S S S S E     Q    E  H        S S
------0-----0---0-2---0-2-0-2-0----|-----------------------|
----3-----3---0-----0-----------2--|-------0--2--------L---|
--3-----3--------------------------|-----------------------|
-----------------------------------|--0--------------------|

                      |-3-|

  Q    S. T Q    S. T S S S E     Q    E  H        S S
-------------------------------|-----------------------|
------------0----L----0-2-0----|-------0--2--------L---|
--3----L--------------------2--|-----------------------|
-------------------------------|--0--------------------|

  Q.     S S E.  T T E.  T T    Q    E  H        S S
-----------------------------|-----------------------|
-------------0---L---2---L---|-------0--2--------L---|
--3------L-------------------|-----------------------|
-----------------------------|--0--------------------|

                      |-3-|

  Q    S. T Q    S. T S S S E     Q    E  H        S S
-------------------------------|-----------------------|
------------0----L----0-2-0----|-------0--2--------L---|
--3----L--------------------2--|-----------------------|
-------------------------------|--0--------------------|

                          |-3-|

  S S S S S S S S S S S S S S S E     E.  T T E  Q    E  S S E
------0-----0---0-2---0-2-0-2-0----|----------------------------|
----3-----3---0-----0-----------2--|----------0--2----0--2-0----|
--3-----3--------------------------|-------------------------2--|
-----------------------------------|--0---L---------------------|

                      |-3-|

  E.  T E  T Q    S S S S S E     E.  T T E  Q    E  S S E
-------------------------------|----------------------------|
-------------0----0-0-0-2-0----|----------0--2----0--2-0----|
--3---L---------------------2--|-------------------------2--|
-------------------------------|--0---L---------------------|

  E  E  E  E  S S E  S S E     E.  T T E  Q    E  S S E
-----0--5-------2-7----4-9--|----------------------------|
--------------0-------------|----------0--2----0--2-0----|
--3--------3---------7------|-------------------------2--|
----------------------------|--0---L---------------------|

                      |-3-|

  E.  T E  T Q    S S S S S E     E.  T T E  Q    E  S S E
-------------------------------|----------------------------|
-------------0----0-0-0-2-0----|----------0--2----0--2-0----|
--3---L---------------------2--|-------------------------2--|
-------------------------------|--0---L---------------------|

                          |-3-|

  S S S S S S S S S S S S S S S E     E.  T T E  Q    E  S S E
------0-----0---0-2---0-2-0-2-0----|----------------------------|
----3-----3---0-----0-----------2--|----------0--2----0--2-0----|
--3-----3--------------------------|-------------------------2--|
-----------------------------------|--0---L---------------------|

                      |-3-|

  E.  T E  T Q    S S S S S E     E.  T T E  Q    E  S S E
-------------------------------|----------------------------|
-------------0----0-0-0-2-0----|----------0--2----0--2-0----|
--3---L---------------------2--|-------------------------2--|
-------------------------------|--0---L---------------------|

  E  E  E  E  S S E  S S E     E.  T T E  Q    E  S S E
-----0--5-------2-7----4-9--|----------------------------|
--------------0-------------|----------0--2----0--2-0----|
--3--------3---------7------|-------------------------2--|
----------------------------|--0---L---------------------|

                      |-3-|

  E.  T E  T Q    S S S S S E     E.  T T E  Q    E  S S E
-------------------------------|----------------------------|
-------------0----0-0-0-2-0----|----------0--2----0--2-0----|
--3---L---------------------2--|-------------------------2--|
-------------------------------|--0---L---------------------|

                          |-3-|

  S S S S S S S S S S S S S S S E     E  E  Q    E  E  Q
------0-----0---0-2---0-2-0-2-0----|------------------------|
----3-----3---0-----0-----------2--|--2--2------------------|
--3-----3--------------------------|-------------3--3-------|
-----------------------------------|------------------------|

  E  E  E  E.  S S S S S S S    E  E  Q    E  E  Q
---------------------0-------|------------------------|
--0--0-----0---0-2-4---4-2-0-|--2--2------------------|
-----------------------------|-------------3--3-------|
-----------------------------|------------------------|

  E  E  E  E.  S S S S S S S    E  E  Q    E  E  Q
---------------------0-------|--0--0------------------|
--0--0-----0---0-2-4---4-2-0-|-------------1--1-------|
-----------------------------|------------------------|
-----------------------------|------------------------|

  E  E  Q    S S S S S S S S    E  E  Q    E  E  Q
-------------0---0-2-3-2-0---|--0--0------------------|
--3--3---------3-----------3-|-------------1--1-------|
-----------------------------|------------------------|
-----------------------------|------------------------|

  E  E  Q    S S S S S S S S    E  E  Q    E  E  Q
-------------0---0-2-3-2-0---|------------------------|
--3--3---------3-----------3-|--2--2------------------|
-----------------------------|-------------3--3-------|
-----------------------------|------------------------|

  E  E  Q    S S S S S S S S    E  E  Q    E  E  Q
---------------------0-------|------------------------|
--0--0-------2-0-2-4---4-2-0-|--2--2------------------|
-----------------------------|-------------3--3-------|
-----------------------------|------------------------|

  E  E  Q    S S S S S S S S    E  E  Q    E  E  Q
---------------------0-------|--0--0------------------|
--0--0-------2-0-2-4---4-2-0-|-------------1--1-------|
-----------------------------|------------------------|
-----------------------------|------------------------|

  E  E  Q    S S S S S S S S    E  E  Q    E  E  Q
-------------0---0-2-3-2-0---|--0--0------------------|
--3--3---------3-----------3-|-------------1--1-------|
-----------------------------|------------------------|
-----------------------------|------------------------|

  E  E  Q    S S S S S S S S    E  S S S S S S E  S S S S S S
-------------0---0-2-3-2-0---|-------0-4-0---0------0-4-0---0-|
--3--3---------3-----------3-|--2--4-------4------4-------4---|
-----------------------------|-----------------3--------------|
-----------------------------|--------------------------------|

  E  S S S S S S S S S S S S S S    E  S S S S S S E  S S S S S S
-------0-4-0---0---------0-------|-------0-4-0---0------0-4-0---0-|
--0--4-------4---4-0-2-4---4-2-0-|--2--4-------4------4-------4---|
---------------------------------|-----------------3--------------|
---------------------------------|--------------------------------|

  E  S S S S S S Q.     S S    E  S S S S S S E  S S S S S S
-------0-4-0----------------|-------0-4-0---0------0-4-0---0-|
--0--4-------4-2-0------L---|--2--4-------4------4-------4---|
----------------------------|-----------------3--------------|
----------------------------|--------------------------------|

  E  S S S S S S S S S S S S S S    E  S S S S S S E  S S S S S S
-------0-4-0---0---------0-------|-------0-4-0---0------0-4-0---0-|
--0--4-------4---4-0-2-4---4-2-0-|--2--4-------4------4-------4---|
---------------------------------|-----------------3--------------|
---------------------------------|--------------------------------|

                                  |-3-|          |-3-|

  E  S S S S S S Q.     S S    E  S S S E  E  E  S S S E  E
-------0-4-0----------------|--------------------------------|
--0--4-------4-2-0------L---|--2--2-2-2-2--------------------|
----------------------------|--------------2--3--3-3-3-3--3--|
----------------------------|--------------------------------|

     |-3-|       |-3-|                  |-3-|          |-3-|

  E  S S S E  E  S S S E  S S S S    E  S S S E  E  E  S S S E  E
--------------------------0-------|--------------------------------|
--0--0-0-0-0--0--0-0-0-0----4-2-0-|--2--2-2-2-2--------------------|
----------------------------------|--------------2--3--3-3-3-3--3--|
----------------------------------|--------------------------------|

     |-3-|            |-3-|             |-3-|          |-3-|

  E  S S S S S S S E  S S S E  E     E  S S S E  E  E  S S S E  E
-----------2-0--------------------|--------------------------------|
--0--0-0-0-----4-2-0--0-0-0-0--0--|--2--2-2-2-2--------------------|
----------------------------------|--------------2--3--3-3-3-3--3--|
----------------------------------|--------------------------------|

     |-3-|       |-3-|                  |-3-|          |-3-|

  E  S S S E  E  S S S E  S S S S    E  S S S E  E  E  S S S E  E
--------------------------0-------|--------------------------------|
--0--0-0-0-0--0--0-0-0-0----4-2-0-|--2--2-2-2-2--------------------|
----------------------------------|--------------2--3--3-3-3-3--3--|
----------------------------------|--------------------------------|

     |-3-|            |-3-|       220 Bpm

  E  S S S S S S S E  S S S E  E  ^  E  E  E  E  E  E  E  E  E  E  E  E
-----------2-0--------------------|--------------------------------------|
--0--0-0-0-----4-2-0--0-0-0-0--0--|--2--2--2--2--2--2--------------------|
----------------------------------|--------------------3--3--3--3--3--3--|
----------------------------------|--------------------------------------|

  E  E  E  E  E  E  E  E  E  E  E  E     E  E  E  E  E  E  E  E  E  E  E  E
-----------------------0-----0--------|--------------------------------------|
--0--0--0--0--0--0--4-----4-----4--0--|--2--2--2--2--2--2--------------------|
--------------------------------------|--------------------3--3--3--3--3--3--|
--------------------------------------|--------------------------------------|

  Q    T Q    T S. S. Q    T Q.     S T    E  E  E  E  E  E  E  E  E  E  E  E
----------------------------------------|--------------------------------------|
--0----L-0----L-0--0--0----L-0------L---|--2--2--2--2--2--2--------------------|
----------------------------------------|--------------------3--3--3--3--3--3--|
----------------------------------------|--------------------------------------|

  E  E  E  E  E  E  E  E  E  E  E  E     E  E  E  E  E  E  E  E  E  E  E  E
-----------------------0-----0--------|--------------------------------------|
--0--0--0--0--0--0--4-----4-----4--0--|--2--2--2--2--2--2--------------------|
--------------------------------------|--------------------3--3--3--3--3--3--|
--------------------------------------|--------------------------------------|

  Q    T Q    T S. S. Q    T Q.     S T    E  E  E  E  E  E  E  E  E  E  E  E
----------------------------------------|--------------------------------------|
--0----L-0----L-0--0--0----L-0------L---|--------------------------------------|
----------------------------------------|--------------------------------------|
----------------------------------------|--3--3--3--3--3--3--3--3--3--3--3--3--|

  E  E  E  E  E  E  E  E  E  E  E  E     E  E  E  E  E  E  E  E  E  E  E  E
--------------------------------------|--------------------------------------|
-----------------------------------0--|--------------------------------------|
--------------------2--2--2--2--3-----|--------------------------------------|
--3--3--3--3--3--3--------------------|--3--3--3--3--3--3--3--3--3--3--3--3--|

  E  E  E  E  E  E  E  E  E  E  E  E     E  E  E  E  E  E  E  E  E  E  E  E
--------------------------------------|--------------------------------------|
-----------------------------------0--|--2--2--2--2--2--2--0--0--0--0--0--0--|
--------------------2--2--2--2--3-----|--------------------------------------|
--3--3--3--3--3--3--------------------|--------------------------------------|

  E  E  E  E  E  E  E  E  E  E  E  E     E  E  E  E  E  E  E  E  E  E  E  E
--------------------------------------|--------------------------------------|
-----------------------------0--0--0--|--2--2--2--2--2--2--0--0--0--0--0--0--|
--------------------3--3--3-----------|--------------------------------------|
--3--3--3--3--3--3--------------------|--------------------------------------|

  Q    T Q    T S. S. Q    T Q    T S. S.
------------------------------------------|
------------------------------------------|
------------------------------------------|
--3----L-3----L-3--3--3----L-3----L-3--3--|

  E  E  E  E  E  E  E  E  E  E  E  E     E  E  E  E  E  E  E  E  E  E  E  E
--------------------------------------|--------------------------------------|
--2--2--2--2--2--2--0--0--0--0--0--0--|-----------------------------0--0--0--|
--------------------------------------|--------------------3--3--3-----------|
--------------------------------------|--3--3--3--3--3--3--------------------|

  E  E  E  E  E  E  E  E  E  E  E  E
--------------------------------------|
--2--2--2--2--2--2--0--0--0--0--0--0--|
--------------------------------------|
--------------------------------------|

  Q    T Q    T S. S. Q    T Q    T S. S.
------------------------------------------|
------------------------------------------|
------------------------------------------|
--3----L-3----L-3--3--3----L-3----L-3--3--|

  E  E  E  E  E  E  E  E  E  E  E  E     E  E  E  E  E  E  E  E  E  E  E  E
--------------------------------------|--------------------------------------|
--------------------------------------|-----------------------------------0--|
--------------------------------------|--------------------2--2--2--2--3-----|
--3--3--3--3--3--3--3--3--3--3--3--3--|--3--3--3--3--3--3--------------------|

  E  E  E  E  E  E  E  E  E  E  E  E     E  E  E  E  E  E  E  E  E  E  E  E
--------------------------------------|--------------------------------------|
--------------------------------------|-----------------------------------0--|
--------------------------------------|--------------------2--2--2--2--3-----|
--3--3--3--3--3--3--3--3--3--3--3--3--|--3--3--3--3--3--3--------------------|

  E.  T T E  E  E  E  E.  T T E  E  E  E
------------------------------------------|
--3---L---3--3--3--3----------------------|
----------------------3---L---3--3--3--3--|
------------------------------------------|

  E.  T T E  E  E  E  E.  T T E  E  E  E
------------------------------------------|
------------------------------------------|
------------------------------------------|
--3---L---3--3--3--3--3---L---3--3--3--3--|

  E.  T T E  E  E  E  E.  T T E  E  E  E
------------------------------------------|
--3---L---3--3--3--3----------------------|
----------------------3---L---3--3--3--3--|
------------------------------------------|

  E.  T T E  E  E  E  E.  T T E  E  E  E
------------------------------------------|
------------------------------------------|
------------------------------------------|
--3---L---3--3--3--3--3---L---3--3--3--3--|

  E.  T T E  E  E  E  E.  T T E  E  E  E
------------------------------------------|
--3---L---3--3--3--3----------------------|
----------------------3---L---3--3--3--3--|
------------------------------------------|

  E.  T T E  E  E  E  E.  T T E  E  E  E
------------------------------------------|
------------------------------------------|
------------------------------------------|
--3---L---3--3--3--3--3---L---3--3--3--3--|

  E.  T T E  E  E  E  E.  T T E  E  E  E
------------------------------------------|
--3---L---3--3--3--3----------------------|
----------------------3---L---3--3--3--3--|
------------------------------------------|

  E.  T T E  E  E  E  E.  T T E  E  E  E
------------------------------------------|
--2---L---2--2--2--2--2---L---2--2--2--2--|
------------------------------------------|
------------------------------------------|

  E.  T T E  E  E  E  E.  T T E  E  E  E
------------------------------------------|
--2---L---2--2--2--2--2---L---2--2--2--2--|
------------------------------------------|
------------------------------------------|

  E.  T T E  E  E  E  E.  T T E  E  E  E
------------------------------------------|
------------------------------------------|
--3---L---3--3--3--3--3---L---3--3--3--3--|
------------------------------------------|

  E.  T T E  E  E  E  E.  T T E  E  E  E
------------------------------------------|
------------------------------------------|
--3---L---3--3--3--3--3---L---3--3--3--3--|
------------------------------------------|

  E.  T T E  E  E  E  E.  T T E  E  E  E
------------------------------------------|
--0---L---0--0--0--0--0---L---0--0--0--0--|
------------------------------------------|
------------------------------------------|

  E.  T T E  E  E  E  E.  T T E  E  E  E
------------------------------------------|
--0---L---0--0--0--0--0---L---0--0--0--0--|
------------------------------------------|
------------------------------------------|

  E.  T T E  E  E  E  E.  T T E  E  E  E
------------------------------------------|
------------------------------------------|
--2---L---2--2--2--2--2---L---2--2--2--2--|
------------------------------------------|

  E.  T T E  E  E  E  E.  T T E  E  E  E
------------------------------------------|
---------------------------------0--0--0--|
--2---L---2--2--2--2--3---L---3-----------|
------------------------------------------|

  E.  T T E  E  E  E  E.  T T E  E  E  E
------------------------------------------|
--2---L---2--2--2--2--2---L---2--2--2--2--|
------------------------------------------|
------------------------------------------|

  E.  T T E  E  E  E  E.  T T E  E  E  E
------------------------------------------|
--2---L---2--2--2--2--2---L---2--2--2--2--|
------------------------------------------|
------------------------------------------|

  E.  T T E  E  E  E  E.  T T E  E  E  E
------------------------------------------|
------------------------------------------|
--3---L---3--3--3--3--3---L---3--3--3--3--|
------------------------------------------|

  E.  T T E  E  E  E  E.  T T E  E  E  E
------------------------------------------|
------------------------------------------|
--3---L---3--3--3--3--3---L---3--3--3--3--|
------------------------------------------|

  E.  T T E  E  E  E  E.  T T E  E  E  E
------------------------------------------|
--0---L---0--0--0--0--0---L---0--0--0--0--|
------------------------------------------|
------------------------------------------|

  E.  T T E  E  E  E  E.  T T E  E  E  E
------------------------------------------|
--0---L---0--0--0--0--0---L---0--0--0--0--|
------------------------------------------|
------------------------------------------|

  E.  T T E  E  E  E  E.  T T E  E  E  E
------------------------------------------|
------------------------------------------|
--2---L---2--2--2--2--2---L---2--2--2--2--|
------------------------------------------|

  E.  T T E  E  E  E  E.  T T E  E  E  E
------------------------------------------|
---------------------------------0--0--0--|
--2---L---2--2--2--2--3---L---3-----------|
------------------------------------------|

  E.  T T E  E  E  E  E.  T T E  E  E  E
------------------------------------------|
------------------------------------------|
------------------------------------------|
--2---L---2--2--2--2--2---L---2--2--2--2--|

  E.  T T E  E  E  E  E.  T T E  E  E  E
------------------------------------------|
------------------------------------------|
------------------------------------------|
--2---L---2--2--2--2--2---L---2--2--2--2--|

  E.  T T E  E  E  E  E.  T T E  E  E  E
------------------------------------------|
--0---L---0--0--0--0--2---L---2--2--2--2--|
------------------------------------------|
------------------------------------------|

  E.  T T E  E  E  E  E.  T T E  E  E  E
------------------------------------------|
--4---L---4--4--4--4--2---L---2--2--2--2--|
------------------------------------------|
------------------------------------------|

  E.  T T E  E  E  E  E.  T T E  E  E  E
------------------------------------------|
------------------------------------------|
------------------------------------------|
--2---L---2--2--2--2--2---L---2--2--2--2--|

  E.  T T E  E  E  E  E.  T T E  E  E  E
------------------------------------------|
------------------------------------------|
------------------------------------------|
--2---L---2--2--2--2--2---L---2--2--2--2--|

  E.  T T E  E  E  E  E.  T T E  E  E  E
------------------------------------------|
--0---L---0--0--0--0--2---L---2--2--2--2--|
------------------------------------------|
------------------------------------------|

  E  E  E  E  E  E  E  E  E  E  E  E     E  E  E  E  E  E  E  E  E  E  E  E
--------------------------------------|--------------------------------------|
--------------------------------------|--------------------------------------|
--0--0--0--0--0--0--0--0--0--0--0--0--|--0--0--0--0--0--0--0--0--0--0--0--0--|
--------------------------------------|--------------------------------------|

  E  E  E  E  E  E  E  E  E  E  E  E     E  E  E  E  E  E  E  E  E  Q    S. T
--------------------------------------|---------------------------------------|
--------------------------------------|---------------------------------------|
--------------------------------------|---------------------------------------|
--0--0--0--0--0--0--0--0--0--0--0--0--|--0--0--0--0--0--0--0--0--0--3----L----|

  E  E  E  E  E  E  E  E  E  E  E  E     E  E  E  E  E  E  E  E  E  Q    S. T
--------------------------------------|---------------------------------------|
--------------------------------------|---------------------------------------|
--------------------------------------|---------------------------------------|
--0--0--0--0--0--0--0--0--0--0--0--0--|--0--0--0--0--0--0--0--0--0--3----L----|

  E  E  E  E  E  E  E  E  E  E  E  E     E  E  E  E  E  E  E  E  E  Q    S. T
--------------------------------------|---------------------------------------|
--------------------------------------|---------------------------------------|
--------------------------------------|---------------------------------------|
--0--0--0--0--0--0--0--0--0--0--0--0--|--0--0--0--0--0--0--0--0--0--3----L----|

  E  E  E  E  E  E  E  E  E  E  E  E     E  E  E  E  E  E  E  E  E  Q    S. T
--------------------------------------|---------------------------------------|
--------------------------------------|---------------------------------------|
--------------------------------------|---------------------------------------|
--0--0--0--0--0--0--0--0--0--0--0--0--|--0--0--0--0--0--0--0--0--0--3----L----|

  E  E  E  E  E  E  E  E  E  E  E  E     E  E  E  E  E  E  E  E  E  Q    S. T
--------------------------------------|---------------------------------------|
--------------------------------------|---------------------------------------|
--------------------------------------|-----------------------------0----L----|
--2--2--2--2--2--2--2--2--2--2--2--2--|--2--2--2--2--2--2--2--2--2------------|

  E  E  E  E  E  E  E  E  E  E  E  E     E  E  E  E  E  E  E  E  E  Q    S. T
--------------------------------------|---------------------------------------|
--------------------------------------|---------------------------------------|
--------------------------------------|-----------------------------0----L----|
--2--2--2--2--2--2--2--2--2--2--2--2--|--2--2--2--2--2--2--2--2--2------------|

  E  E  E  E  E  E  E  E  E  E  E  E     E  E  E  E  E  E  E  E  E  Q    S. T
--------------------------------------|---------------------------------------|
--------------------------------------|---------------------------------------|
--------------------------------------|-----------------------------0----L----|
--2--2--2--2--2--2--2--2--2--2--2--2--|--2--2--2--2--2--2--2--2--2------------|

  E  E  E  E  E  E  E  E  E  E  E  E     E  E  E  E  E  E  E  E  E  Q    S. T
--------------------------------------|---------------------------------------|
--------------------------------------|---------------------------------------|
--------------------------------------|-----------------------------0----L----|
--2--2--2--2--2--2--2--2--2--2--2--2--|--2--2--2--2--2--2--2--2--2------------|

  E.  T T E  E  E  E  E.  T T E  E  E  E
------------------------------------------|
--2---L---2--2--2--2--2---L---2--2--2--2--|
------------------------------------------|
------------------------------------------|

  E.  T T E  E  E  E  E.  T T E  E  E  E
------------------------------------------|
--2---L---2--2--2--2--2---L---2--2--2--2--|
------------------------------------------|
------------------------------------------|

  E.  T T E  E  E  E  E.  T T E  E  E  E
------------------------------------------|
------------------------------------------|
--3---L---3--3--3--3--3---L---3--3--3--3--|
------------------------------------------|

  E.  T T E  E  E  E  E.  T T E  E  E  E
------------------------------------------|
------------------------------------------|
--3---L---3--3--3--3--3---L---3--3--3--3--|
------------------------------------------|

  E.  T T E  E  E  E  E.  T T E  E  E  E
------------------------------------------|
--0---L---0--0--0--0--0---L---0--0--0--0--|
------------------------------------------|
------------------------------------------|

  E.  T T E  E  E  E  E.  T T E  E  E  E
------------------------------------------|
--0---L---0--0--0--0--0---L---0--0--0--0--|
------------------------------------------|
------------------------------------------|

  E.  T T E  E  E  E  E.  T T E  E  E  E
------------------------------------------|
------------------------------------------|
--2---L---2--2--2--2--2---L---2--2--2--2--|
------------------------------------------|

  E.  T T E  E  E  E  E.  T T E  E  E  E
------------------------------------------|
---------------------------------0--0--0--|
--2---L---2--2--2--2--3---L---3-----------|
------------------------------------------|

  E.  T T E  E  E  E  E.  T T E  E  E  E
------------------------------------------|
--2---L---2--2--2--2--2---L---2--2--2--2--|
------------------------------------------|
------------------------------------------|

  E.  T T E  E  E  E  E.  T T E  E  E  E
------------------------------------------|
--2---L---2--2--2--2--2---L---2--2--2--2--|
------------------------------------------|
------------------------------------------|

  E.  T T E  E  E  E  E.  T T E  E  E  E
------------------------------------------|
------------------------------------------|
--3---L---3--3--3--3--3---L---3--3--3--3--|
------------------------------------------|

  E.  T T E  E  E  E  E.  T T E  E  E  E
------------------------------------------|
------------------------------------------|
--3---L---3--3--3--3--3---L---3--3--3--3--|
------------------------------------------|

  E.  T T E  E  E  E  E.  T T E  E  E  E
------------------------------------------|
--0---L---0--0--0--0--0---L---0--0--0--0--|
------------------------------------------|
------------------------------------------|

  E.  T T E  E  E  E  E.  T T E  E  E  E
------------------------------------------|
--0---L---0--0--0--0--0---L---0--0--0--0--|
------------------------------------------|
------------------------------------------|

  Q    S. T Q    S. T Q    S. T Q    S. T
------------------------------------------|
------------------------------------------|
--2----L--------------2----L--------------|
------------2----L--------------2----L----|

                                      80 Bpm
  E.  E.  Q    S. T E.  E.  Q    S. T ^  E  E  Q    E  E  Q
--------------------------------------|------------------------|
--------------------0-------0----L----|--2--2------------------|
--3---2---3----L--------3-------------|-------------3--3-------|
--------------------------------------|------------------------|

  E  E  E  E.  S S S S S S S    E  E  Q    E  E  Q
---------------------0-------|------------------------|
--0--0-----0---0-2-4---4-2-0-|--2--2------------------|
-----------------------------|-------------3--3-------|
-----------------------------|------------------------|

  E  E  E  E.  S S S S S S S    E  E  Q    E  E  Q
---------------------0-------|--0--0------------------|
--0--0-----0---0-2-4---4-2-0-|-------------1--1-------|
-----------------------------|------------------------|
-----------------------------|------------------------|

  E  E  Q    S S S S S S S S    E  E  Q    E  E  Q
-------------0---0-2-3-2-0---|--0--0------------------|
--3--3---------3-----------3-|-------------1--1-------|
-----------------------------|------------------------|
-----------------------------|------------------------|

80 Bpm                          >                              20 Bpm
  E  Q    S S E  E  S S E     W                   H.           E.  S
---------------------------|-------------------|---------------------||
--3--3----3-3-3--3--3-3----|-------------------|---------------------||
---------------------------|-------------------|---------------------||
------------------------0--|--0----------------|--L------------L-----||

Duration Legend
---------------

E - 8th
. - note dotted
----------------
						
# Artist Title Tabdesignator