Dream Theater

Under A Glass Moon


							
Standard Tuning
G||-------------------|-------------------|-------------------|
D||-------------------|-------------------|-------------------|
A||-------------------|-------------------|-------------------|
E||-------------------|-------------------|-------------------|

  W                   W                   W                   W
-------------------|-------------------|-------------------|-------------------|
-------------------|-------------------|-------------------|-------------------|
-------------------|-------------------|-------------------|-------------------|
-------------------|-------------------|-------------------|-------------------|

  W                   W                   W                   W
-------------------|-------------------|-------------------|-------------------|
-------------------|-------------------|-------------------|-------------------|
-------------------|-------------------|-------------------|-------------------|
-------------------|-------------------|-------------------|-------------------|

  W                   W                   W                   W
-------------------|-------------------|-------------------|-------------------|
-------------------|-------------------|-------------------|-------------------|
-------------------|-------------------|-------------------|-------------------|
-------------------|-------------------|-------------------|-------------------|

  W                   S S S S E  Q    E  E  E
-------------------|---------------------------|
-------------------|----------4-------------4--|
-------------------|---------------------------|
-------------------|--2-2-2-2---------2--------|

  S S S S E  E  S S S S S S S S    S S S S E  Q    E  E  E
--------------------------------|---------------------------|
----------4-------------4-4-4-4-|----------4-------------4--|
--------------------------------|---------------------------|
--2-2-2-2-------2-2-2-2---------|--2-2-2-2---------2--------|

  S S S S E  E  S S S S S S S S    S S S S E  Q    E  E  E
--------------------------------|---------------------------|
----------4-------------4-4-4-4-|----------4-------------4--|
--------------------------------|---------------------------|
--2-2-2-2-------2-2-2-2---------|--2-2-2-2---------2--------|

  S S S S E  E  S S S S S S S S    S S S S E  Q    E  E  E
--------------------------------|---------------------------|
----------4-------------4-4-4-4-|----------4-------------4--|
--------------------------------|---------------------------|
--2-2-2-2-------2-2-2-2---------|--2-2-2-2---------2--------|

  S S S S S S S S S S S S E  E     S S S S E  Q    E  E  E
--------------------------------|---------------------------|
----------4-4-4-4---------4--4--|----------4-------------4--|
--------------------------------|---------------------------|
--2-2-2-2---------2-2-2-2-------|--2-2-2-2---------2--------|

  S S S S E  E  S S S S S S S S    S S S S E  Q    E  E  E
--------------------------------|---------------------------|
----------4-------------4-4-4-4-|----------4-------------4--|
--------------------------------|---------------------------|
--2-2-2-2-------2-2-2-2---------|--2-2-2-2---------2--------|

  S S S S E  E  S S S S S S S S    S S S S E  Q    E  E  E
--------------------------------|---------------------------|
----------4-------------4-4-4-4-|----------4-------------4--|
--------------------------------|---------------------------|
--2-2-2-2-------2-2-2-2---------|--2-2-2-2---------2--------|

  S S S S E  E  S S S S S S S S    S S S S E  Q    E  E  E
--------------------------------|---------------------------|
----------4-------------4-4-4-4-|----------4-------------4--|
--------------------------------|---------------------------|
--2-2-2-2-------2-2-2-2---------|--2-2-2-2---------2--------|

  S S S S S S S S S S S S S S S S    S S S S E  Q    E  E  E
----------------------------------|---------------------------|
----------4-4-4-4---------4-4-4-4-|---------------------------|
----------------------------------|---------------------------|
--2-2-2-2---------2-2-2-2---------|--2-2-3-3-2-------2-----3--|

  S S S S E  E  S S S S S S S S    S S S S E  Q    E  E  E
--------------------------------|---------------------------|
--------------------------------|---------------------------|
--------------------------------|---------------------------|
--2-2-3-3-2-----2-2-3-3-2-2-0-0-|--2-2-3-3-2-------2-----3--|

  S S S S E  E  S S S S S S S S    S S S S E  Q    E  E  E
--------------------------------|---------------------------|
--------------------------------|---------------------------|
----------------0---------------|---------------------------|
--2-2-3-3-2-------3-2-0-3-2-0-0-|--2-2-3-3-2-------2-----3--|

  S S S S E  E  S S S S S S S S    S S S S S S S S S S S S S S S S
--------------------------------|----------------------------------|
--------------------------------|--------------0---0---------------|
--------------------------------|--4-2-4-2-------2---2-----4-2-4-2-|
--2-2-3-3-2-----2-2-3-3-2-2-0-0-|----------3-2---------3-2---------|

  S S S S S S S S S S E  S S E     S S S S S S S S S S S S S S S S
--------------------------------|----------------------------------|
--------0-----------------------|----------------------------------|
------4---4-2-------------------|----------------------------------|
--3-2---------3-2-0-0-3--0-0-3--|--2-2-2-2-2-2-2-2-2-2-2-2-2-2-2-2-|

  S S S S S S S S S S S S S S S S    S S S S S S S S S S S S S S S S
----------------------------------|----------------------------------|
----------------------------------|----------------------------------|
----------------------------------|----------------------------------|
--2-2-2-2-2-2-2-2-3-3-3-3-3-3-3-3-|--2-2-2-2-2-2-2-2-2-2-2-2-2-2-2-2-|

  S S S S S S S S S S S S S S S S    S S S S S S S S S S S S S S S S
----------------------------------|----------------------------------|
----------------------------------|----------------------------------|
------------------0-0-1-1-2-2-3-3-|----------------------------------|
--2-2-2-2-2-2-2-2-----------------|--2-2-2-2-2-2-2-2-2-2-2-2-2-2-2-2-|

  S S S S S S S S S S S S S S S S    S S S S S S S S S S S S S S S S
----------------------------------|----------------------------------|
----------------------------------|----------------------------------|
----------------------------------|----------------------------------|
--2-2-2-2-2-2-2-2-0-0-0-0-0-0-0-0-|--2-2-2-2-2-2-2-2-2-2-2-2-2-2-2-2-|

  S S S S S S S S S S E  S E.     Q    Q    E  E  E  E  E  E  Q
------------------0-0----0-0---|-----------------------------------|
----------0-1-3-4--------------|-----------------------------------|
----0-2-3----------------------|-----------------------------------|
--4----------------------------|--2----2----0--2-----2-----0--2----|

  Q    Q    E  E  E  E  E  E  E  E     Q    Q    Q    E  E  E  E  E  E
------------------------------------|-----------------------------------|
------------------------------------|-----------------------------------|
------------------------------------|-----------------------------------|
--2----2----0--2-----2-----2-----0--|--2----2----2----0--2-----2-----0--|

  Q    E  E  E  E  E  E  E  E  E  E     Q    Q    E  E  E  E  E  E  Q
-------------------------------------|-----------------------------------|
-------------------------------------|-----------------------------------|
-------------------------------------|-----------------------------------|
--2----0--2-----2-----0--2--0--2--0--|--2----2----0--2-----2-----0--2----|

  Q    Q    E  E  E  E  E  E  E  E     Q    Q    Q    E  E  E  E  E  E
------------------------------------|-----------------------------------|
------------------------------------|-----------------------------------|
------------------------------------|-----------------------------------|
--2----2----0--2-----2-----2-----0--|--2----2----2----0--2-----2-----0--|

  Q    E  E  E  E  E  E  E  E  E  E     Q    Q    E  E  E  E  E  E  Q
-------------------------------------|-----------------------------------|
-------------------------------------|-----------------------------------|
-------------------------------------|-----------------------------------|
--2----0--2-----2-----0--2--0--2--0--|--2----2----0--2-----2-----0--2----|

  Q    Q    E  E  E  E  E  E  E  E     Q    Q    Q    E  E  E  E  E  E
------------------------------------|-----------------------------------|
------------------------------------|-----------------------------------|
------------------------------------|-----------------------------------|
--2----2----0--2-----2-----2-----0--|--2----2----2----0--2-----2-----0--|

  Q    E  E  E  E  E  E  E  E  E  E     E  E  E  E  E  E  E  E  E  E  E  E
-------------------------------------|--------------------------------------|
-------------------------------------|--------------------------------------|
-------------------------------------|--------------------------------------|
--2----0--2-----2-----0--2--0--2--0--|--2--2--2--2--2--2--2--2--2--2--2--2--|

  E  E  E  E  E  E  E  E  E  E  E  E     E  E  E  E  E  E  E  E  E  E  E  E
--------------------------------------|--------------------------------------|
--------------------------------------|--0--0--0--0--0--0--0--0--0--0--------|
--------------------------------------|--------------------------------4--4--|
--0--0--0--0--0--0--0--0--0--0--0--0--|--------------------------------------|

  E  E  E  E  E  E  E  E  E  E  E  E     E  E  E  E  E  E  E  E  E  E  E  E
--------4-----------------------------|--------------------------------------|
-----4--------------------------------|--------------------------------------|
--2-----------------------------------|--------------------------------------|
-----------2-----2-----0--2--0--2--0--|--2--2--2--2--2--2--2--2--2--2--2--2--|

  E  E  E  E  E  E  E  E  E  E  E  E     E  E  E  E  E  E  E  E  E  E  E  E
--------------------------------------|--------------------------------------|
--------------------------------------|--0--0--0--0--0--0--0--0--0--0--------|
--------------------------------------|--------------------------------4--4--|
--0--0--0--0--0--0--0--0--0--0--0--0--|--------------------------------------|

  E  E  E  E  E  E  E  E  E  E  E  E     S S S S S S S S S S S S S S S S
--------4-----------------------------|----------------------------------|
-----4--------------------------------|----------------------------------|
--2-----------------------------------|--4-4-4-4-4-4-4-4-4-4-4-4-4-4-4-4-|
-----------2-----2-----0--2--0--2--0--|----------------------------------|

  S S S S S S S S S S S S S S S S    S S S S S S S S S S S S S S S S
----------------------------------|----------------------------------|
----------------------------------|----------------------------------|
--4-4-4-4-4-4-4-4-0-0-0-0-0-0-0-0-|--0-0-0-0-------------------------|
----------------------------------|----------2-2-2-2-2-2-2-2-2-2-2-2-|

  E  E  E  E  S S E  S E.     S S S S S S S S S S S S S S S S
---------------------------|----------------------------------|
-----0-----0-----------0---|----------------------------------|
--4------------------------|--4-4-4-4-4-4-4-4-4-4-4-4-4-4-4-4-|
--------3-----1-1-1--1-----|----------------------------------|

  S S S S S S S S S S S S S S S S    S S S S S S S S E  E  E  E
----------------------------------|------------------------4-----|
----------------------------------|---------------------4-----4--|
----------------------------------|--2-2-2-2-2-2-2-2-2-----------|
--0-0-0-0-0-0-0-0-2-2-2-2-2-2-2-2-|------------------------------|

  E  E  Q    S S S S Q       S S S S S S S S S S S S S S S S
--------------------------|----------------------------------|
--------------------------|----------------------------------|
--------------------------|--4-4-4-4-4-4-4-4-4-4-4-4-4-4-4-4-|
--3--3--3----1-1-1-1-1----|----------------------------------|

  S S S S S S S S S S S S S S S S    S S S S S S S S S S S S S S S S
----------------------------------|----------------------------------|
----------------------------------|----------------------------------|
--4-4-4-4-4-4-4-4-0-0-0-0-0-0-0-0-|--0-0-0-0-------------------------|
----------------------------------|----------2-2-2-2-2-2-2-2-2-2-2-2-|

  E  E  E  E  S S E  S E.     S S S S S S S S S S S S S S S S
---------------------------|----------------------------------|
-----0-----0-----------0---|----------------------------------|
--4------------------------|--4-4-4-4-4-4-4-4-4-4-4-4-4-4-4-4-|
--------3-----1-1-1--1-----|----------------------------------|

  S S S S S S S S S S S S S S S S    S S S S S S S S S S S S S S E
----------------------------------|---------------------------------|
----------------------------------|---------------------------------|
----------------------------------|--2-2-2-2-2-2-2-2-2-2-2-2-2-2-2--|
--0-0-0-0-0-0-0-0-2-2-2-2-2-2-2-2-|---------------------------------|

  H.           E  E     S S S S E  Q    E  E  E
---------------------|---------------------------|
---------------------|---------------------------|
---------------2-----|---------------------------|
------------------3--|--2-2-3-3-2-------2-----3--|

  S S S S E  E  S S S S S S S S    S S S S E  Q    E  E  E
--------------------------------|---------------------------|
--------------------------------|---------------------------|
--------------------------------|---------------------------|
--2-2-3-3-2-----2-2-3-3-2-2-0-0-|--2-2-3-3-2-------2-----3--|

  E  S S S S E  E  T E  T T E  T    S S S S E  Q    E  E  E
---------------------------------|---------------------------|
----------------1--L-------------|---------------------------|
---------------------3--L---2--L-|---------------------------|
--2--0-0---0-0-------------------|--2-2-3-3-2-------2-----2--|

  E  E  S S S S S S E  E  E  E  E     S S S S E  Q    E  E  E
-----------------------------------|---------------------------|
-----------------------------------|---------------------------|
-----------------------------------|---------------------0-----|
-----3--2-2-3-3-2-2-0-----0-----0--|--2-2-3-3-2-------2-----2--|

  E  E  E  E  Q    E  E     Q    S S Q    Q.        S S S S E  E  H
-------------------------|-----------------------|-------------------------|
--------------2-------2--|--1--------------------|-------------------------|
--3--4--3--0-------4-----|-------2-0-------------|-------------------------|
-------------------------|----------------1------|--0-0---0-0--2-----------|

  S S S S E  S S S S S S E  S S    S S S S E  S S S S S S E  S S
--------------------------------|--------------------------------|
----------4--------------4------|----------4--------------4------|
--------------------------------|--------------------------------|
--2-2-2-2----2-2-2-2-2-2----2-2-|--2-2-2-2----2-2-2-2-2-2----2-2-|

  S S S S E  S S S S S S E  S S    S S S S E  S S E  E  E  E
--------------------------------|-----------------------------|
----------4--------------4------|----------4------2-----------|
--------------------------------|--------------------4--0--2--|
--2-2-2-2----2-2-2-2-2-2----2-2-|--2-2-2-2----2-2-------------|

  S S S S E  S S S S S S E  S S    S S S S E  S S S S S S E  S S
--------------------------------|--------------------------------|
----------4--------------4------|----------4--------------4------|
--------------------------------|--------------------------------|
--2-2-2-2----2-2-2-2-2-2----2-2-|--2-2-2-2----2-2-2-2-2-2----2-2-|

  S S S S E  S S S S S S E  S S    S S S S E  S S S S E  E  E
--------------------------------|------------------------------|
----------4--------------4------|----------4------2-2-------2--|
--------------------------------|---------------------4--2-----|
--2-2-2-2----2-2-2-2-2-2----2-2-|--2-2-2-2----2-2--------------|

  S S S S E  S S S S S S E  S S    S S S S E  S S S S S S E  S S
--------------------------------|--------------------------------|
----------4--------------4------|----------4--------------4------|
--------------------------------|--------------------------------|
--2-2-2-2----2-2-2-2-2-2----2-2-|--2-2-2-2----2-2-2-2-2-2----2-0-|

  S S S S E  S S S S S S E  S S    S S S S E  S S E  E  E  S S
--------------------------------|------------------------------|
----------4--------------4------|----------4------2-----4------|
--------------------------------|--------------------4---------|
--2-2-2-2----2-2-2-2-2-2----2-2-|--2-2-2-2----2-2----------2-2-|

  S S S S E  S S S S S S E  S S    S S S S E  S S S S S S E  S S
--------------------------------|--------------------------------|
----------4--------------4------|----------4--------------4------|
--------------------------------|--------------------------------|
--2-2-2-2----2-2-2-2-2-2----2-2-|--2-2-2-2----2-2-2-2-2-2----2-2-|

  S S S S E  S S S S S S E  S S    S S S S E  S S E  E  E  E
--------------------------------|-----------------------------|
----------4--------------4------|----------4------2-----------|
--------------------------------|--------------------4--0--2--|
--2-2-2-2----2-2-2-2-2-2----2-2-|--2-2-2-2----2-2-------------|

  E  S S E  S S S S S S E  S S    E  S S E  S S S S S S E  S S
-------------------------------|-------------------------------|
-------------------------------|-------------------------------|
--0--0-0-0--0-0-0-0-0-0-0--0-0-|--0--0-0-0--0-0-0-0-0-0-0--0-0-|
-------------------------------|-------------------------------|

  E  S S E  S S S S S S E  S S    S S S S S S S S S S S S E  S S
-------------------------------|---------------------------------|
-------------------------------|---------------------------------|
--2--2-2-2--2-2-2-2-2-2-2--2-2-|--2-2-2-2-2-2-2-2-2-2-2-2-2--2-2-|
-------------------------------|---------------------------------|

  S S S S E  S S S S S S E  S S    S S S S E  S S S S S S E  S S
--------------------------------|--------------------------------|
----------4--------------4------|----------4--------------4------|
--------------------------------|--------------------------------|
--2-2-2-2----2-2-2-2-2-2----2-2-|--2-2-2-2----2-2-2-2-2-2----2-0-|

  S S S S E  S S S S S S E  S S    E  S S S S S S S S S S S S S S
--------------------------------|---------------------------------|
----------4--------------4------|--4------------------------------|
--------------------------------|---------------------------------|
--2-2-2-2----2-2-2-2-2-2----2-2-|-----2-2-2-2-2-2-2-2-2-2-2-2-2-2-|

  S S S S S S S S S S S S S S S S    S S S S S S S S S S S S S S S S
----------------------------------|----------------------------------|
----------------------------------|----------------------------------|
--4-4-4-4-4-4-4-4-4-4-4-4-4-4-4-4-|--4-4-4-4-4-4-4-4-0-0-0-0-0-0-0-0-|
----------------------------------|----------------------------------|

  S S S S S S S S S S S S S S S S    E  E  E  E  S S E  S E.
----------------------------------|---------------------------|
----------------------------------|-----0-----0-----------0---|
--0-0-0-0-------------------------|--4------------------------|
----------2-2-2-2-2-2-2-2-2-2-2-2-|--------3-----1-1-1--1-----|

  S S S S S S S S S S S S S S S S    S S S S S S S S S S S S S S S S
----------------------------------|----------------------------------|
----------------------------------|----------------------------------|
--4-4-4-4-4-4-4-4-4-4-4-4-4-4-4-4-|----------------------------------|
----------------------------------|--0-0-0-0-0-0-0-0-2-2-2-2-2-2-2-2-|

  S S S S S S S S E  E  E  E     E  E  Q    S S S S Q
------------------------4-----|--------------------------|
---------------------4-----4--|--------------------------|
--2-2-2-2-2-2-2-2-2-----------|--------------------------|
------------------------------|--3--3--3----1-1-1-1-1----|

  S S S S S S S S S S S S S S S S    S S S S S S S S S S S S S S S S
----------------------------------|----------------------------------|
----------------------------------|----------------------------------|
--4-4-4-4-4-4-4-4-4-4-4-4-4-4-4-4-|--4-4-4-4-4-4-4-4-0-0-0-0-0-0-0-0-|
----------------------------------|----------------------------------|

  S S S S S S S S S S S S S S S S    E  E  E  E  S S E  S E.
----------------------------------|---------------------------|
----------------------------------|-----0-----0-----------0---|
--0-0-0-0-------------------------|--4------------------------|
----------2-2-2-2-2-2-2-2-2-2-2-2-|--------3-----1-1-1--1-----|

  S S S S S S S S S S S S S S S S    S S S S S S S S S S S S S S S S
----------------------------------|----------------------------------|
----------------------------------|----------------------------------|
--4-4-4-4-4-4-4-4-4-4-4-4-4-4-4-4-|----------------------------------|
----------------------------------|--0-0-0-0-0-0-0-0-2-2-2-2-2-2-2-2-|

  S S S S S S S S S S S S S S E     H.           E  E     H.           E  E
---------------------------------|---------------------|---------------------|
---------------------------------|---------------------|---------------------|
--2-2-2-2-2-2-2-2-2-2-2-2-2-2-2--|---------------1-----|---------------1-----|
---------------------------------|------------------3--|------------------3--|

  E  E  E  Q    E  E  E     E  E  Q    Q    Q       E  E  E  E  T T T T E
-------------------------|-----------------------|-------------------------|
-------------------4-----|-----4-----------------|--4-----4-----2-4---2----|
----------------4--------|-------------4---------|----------------------4--|
--2-----2----------------|-----------------------|-------------------------|

  E  E  E  Q    E  E  E     E  E  Q    Q    Q       E  E  E  E  T T T T E
-------------------------|-----------------------|-------------------------|
--4-----4----------4-----|-----4-----------------|--4-----4-----2-4---2----|
----------------4--------|-------------4---------|----------------------4--|
-------------------------|-----------------------|-------------------------|

  E  E  E  Q    E  E  E     E  E  Q    Q    Q       E  E  E  E  T T T T E
-------------------------|-----------------------|-------------------------|
-------------------4-----|-----4-----------------|--4-----4-----2-4---2----|
----------------4--------|-------------4---------|----------------------4--|
--2-----2----------------|-----------------------|-------------------------|

  E  E  E  Q    E  E  E     E  E  Q    Q    Q       E  E  E  E  T T T T E
-------------------------|-----------------------|-------------------------|
--4-----4----------4-----|-----4-----------------|--4-----4-----2-4---2----|
----------------4--------|-------------4---------|----------------------4--|
-------------------------|-----------------------|-------------------------|

  E  E  E  E  E  S S    E  E  E  E  E  E
---------------------|--------------------|
-----1-----1--2------|--------1--------2--|
--4-----4------------|-----4--------4-----|
-----------------2-2-|--2--------2--------|

  S S E  E  E  E  E  E  T T T T E  E     E  E  E  E  E  S S
--------------------------------------|---------------------|
---------1----------------------------|-----1-----1--2------|
------4-----4-----2-----0-2---0-------|--4-----4------------|
--2-2----------2-----2----------2--0--|-----------------2-2-|

  E  E  E  E  E  E     S S E  E  E  E  E  E  T T T T E  E     E  E  E  E
--------------------|--------------------------------------|--------------|
--------1--------2--|---------1----------------------------|--------------|
-----4--------4-----|------4-----4-----2-----0-2---0-------|--------------|
--2--------2--------|--2-2----------2-----2----------2--0--|--2--4--2--4--|

  E  E  E  E  E  E  E  E     E  E  E  E  E  E  E  E     E  E  E  E  E  E
--------------------------|--------------------------|--------------------|
--------------------------|--------------------------|--------------------|
-----------0--2--0--3--4--|--------2--0--------------|--------------------|
--2--2--2-----------------|--2--2-----------2-----2--|--2-----2--4--2--4--|

  E  E  E  E  E  E  E  E     E  E  E  E  E  E  E  E
--------------------------|--------------------------|
--------------------------|--------------------------|
-----------0--2--0--3--4--|--------2--0--------------|
--2--2--2-----------------|--2--2-----------2-----2--|

  E  E  E  E  E  E  E  E  E  E     S S S S E  S S S S S S E  S S
--------------------------------|--------------------------------|
--------------------------------|----------4--------------4------|
--------0--2--0-----------------|--------------------------------|
-----2-----------4--2--0--2--0--|--2-2-2-2----2-2-2-2-2-2----2-2-|

  S S S S E  S S S S S S E  S S    S S S S E  S S S S S S E  S S
--------------------------------|--------------------------------|
----------4--------------4------|----------4--------------4------|
--------------------------------|--------------------------------|
--2-2-2-2----2-2-2-2-2-2----2-2-|--2-2-2-2----2-2-2-2-2-2----2-2-|

  S S S S E  S S S S S S S S S S    E.  E.  E.  Q.     S
---------------------------------|-----------------------|
----------4----------------------|----------4---2------L-|
-----------------0-0-0-0-2-2-2-2-|------2----------------|
--2-2-2-2----2-2-----------------|--0--------------------|

  E  E  Q.     E  Q       E.  E.  E.  Q    S E     E  E  H.
-----------------------|------------------------|---------------------|
--4--2------------2----|----------4---2----L----|--4--2---------------|
--------2------2-------|------2--------------2--|--------2------------|
-----------------------|--0---------------------|---------------------|

  E.  E.  E  E  E  E  E     E  H.           E     E.  E.  E  E  E  E  E
------1---6--------------|--6------------------|----------6--------------|
-------------------6-----|---------------------|------6------------6-----|
--4-------------4-----4--|---------------------|--4-------------4-----4--|
-------------------------|---------------------|-------------------------|

  E  H.           E     E  E  E  E  E  E  E  E
--6------------------|-----------4--------4--4--|
---------------------|--------------------------|
---------------------|-----------------2--------|
---------------------|--7--7--7-----------------|

  E  E  E  E  E  T E  T T E  T    E  E  E  E  E  E  E  E     W
--------------2--L-2--L---2--L-|-----------4--------4--4--|-------------------|
-------------------------------|--------------------------|-------------------|
-----2--2--2-------------------|--2--2--2--------2--------|--2----------------|
-------------------------------|--------------------------|-------------------|

  S S S S E  S S S S S S E  S S    S S S S E  S S S S S S E  S S
--------------------------------|--------------------------------|
----------4--------------4------|----------4--------------4------|
--------------------------------|--------------------------------|
--2-2-2-2----2-2-2-2-2-2----2-2-|--2-2-2-2----2-2-2-2-2-2----2-2-|

  S S S S E  S S S S S S E  S S    S S S S E  S S S S S S S S S S
--------------------------------|---------------------------------|
----------4--------------4------|----------4----------------------|
--------------------------------|-----------------0-0-0-0-2-2-2-2-|
--2-2-2-2----2-2-2-2-2-2----2-2-|--2-2-2-2----2-2-----------------|

  E.  E.  E.  Q    S E     E  E  H        Q       E.  E.  E.  Q    S E
------------------------|----------------------|------------------------|
----------4---2----L-4--|--4--2-----------2----|----------4---2----L----|
------2-----------------|--------2-------------|------2--------------2--|
--0---------------------|----------------------|--0---------------------|

  E  E  H.              E  E  E  E  E  E  E  E     E  H.           E
---------------------|-----1-----6--------------|--6------------------|
--4--2---------------|--------------------6-----|---------------------|
--------2------------|--4-----4--------4-----4--|---------------------|
---------------------|--------------------------|---------------------|

  E  E  E  E  E  E  E  E     E  Q    S S E  E  E  E
-----------6--------------|--6-----------4--3--1-----|
-----6--------------6-----|-----------------------2--|
--4-----4--------4-----4--|----------4-4-------------|
--------------------------|--------------------------|

  E  E  E  E  E  E  E  E     E  E  E  E  E  T E  T T E  T
-----------4--------4--4--|--------------2--L-2--L---2--L-|
--------------------------|-------------------------------|
--2--2--2--------2--------|-----2--2--2-------------------|
--------------------------|-------------------------------|

  E  E  E  E  E  E  E  E     E  E  E  E  E  E  E  E     E  S S E  E  E  E  E
-----------4--------4--4--|--4--3--2--1--4-----------|---------6--------------|
--------------------------|-----------------1--------|------------------------|
--2--2--2--------2--------|--------------------4--2--|--4--4-4----4--4--4--4--|
--------------------------|--------------------------|------------------------|

  E  E  E  E  E  E  E     E  E  E  E  E  E  E     E  E  E  E  E  E  E
-----------------------|-----------------------|-----------------------|
-----------------------|-----------------------|-----------------------|
--4--4--4--4--4--4--4--|--4--4--4--4--4--4--4--|--4--4--4--4--4--4--4--|
-----------------------|-----------------------|-----------------------|

  E  E  E  E  E  E  E     E  E  E  E  E  E  E     E  E  E  E  E  E  E
-----------------------|-----------------------|-----------------------|
-----------------------|-----------------------|-----------------------|
--4--4--4--4--4--4--4--|--4--4--4--4--4--4--4--|--4--4--4--4--4--4--4--|
-----------------------|-----------------------|-----------------------|

  E  E  E  E  E  E  E     E  E  E  E  E  E  E     E  E  E  E  E  E  E
-----------------------|-----------------------|-----------------------|
-----------------------|-----------------------|-----------------------|
--4--4--4--4--4--4--4--|--4--4--4--4--4--4--4--|--4--4--4--4--4--4--4--|
-----------------------|-----------------------|-----------------------|

  E  E  E  E  E  E  E     E  E  Q    S S S S S S    E  E  E  E  E  E  E
-----------------------|-------------------------|-----------------------|
-----------------------|-------------------------|-----------------------|
--4--4--4--4--4--4--4--|--4--4--4----4-4-4-4-4-4-|--4--4--4--4--4--4--4--|
-----------------------|-------------------------|-----------------------|

  E  E  E  E  E  E  E     E  E  E  E  E  E  E     E  E  E  E  E  E  E
-----------------------|-----------------------|-----------------------|
-----------------------|-----------------------|-----------------------|
--4--4--4--4--4--4--4--|--4--4--4--4--4--4--4--|--4--4--4--4--4--4--4--|
-----------------------|-----------------------|-----------------------|

  E  E  E  E  E  E  E     E  E  E  E  E  E  E     E  E  E  E  E  E  E
--1--1--1--1--1--1--1--|--1--1--1--1--1--1--1--|--1--1--1--1--1--1--1--|
-----------------------|-----------------------|-----------------------|
-----------------------|-----------------------|-----------------------|
-----------------------|-----------------------|-----------------------|

  E  E  E  E  E  E  E     E  E  E  S S E  S S E  E
--1--1--1--1--1--1--1--|--------6------6------------|
-----------------------|----------------------------|
-----------------------|--4--4-----4-4----4-4-4--4--|
-----------------------|----------------------------|

  E  S S E  E  E  E  E  E     E  E  E  E  E  E  E  E
--6------------------------|--------8-----------------|
---------------------------|--1--1--------------------|
-----4-4-4--4--4--4--4--4--|-----------6--6--6--6--6--|
---------------------------|--------------------------|

  E  E  E  E  E  E  E  E     S S S S  E  E  E  E  E  E
--------------------------|----------11-----------------|
--------------------------|--4-4-4-4--------------------|
--6--6--6--6--6--6--6--6--|--------------9--9--9--9--9--|
--------------------------|-----------------------------|

  S S E  E  E  E  E  E  E     E  E  E  E  E  E  E  E
---------------------------|--------------------------|
---------------------------|--------------4--4--4--4--|
--9-9-9--9--9--9--9--9--9--|--7--7--7--7--------------|
---------------------------|--------------------------|

  E  E  E  E  E  E  Q       S S S S E  Q    E  E  E     S S S S E  E  S S S S
--1--1--1--1--3--3--4----|---------------------------|------------------------|
-------------------------|---------------------------|------------------------|
-------------------------|--4-4-4-4-4-------4-----4--|--4-4-4-4-4-----4-4-4-4-|
-------------------------|---------------------------|------------------------|

  S S S S E  Q    E  E  E     E  E  S S E  S S E
---------------------------|----------------------|
--1-1-1-1-1-------1-----1--|-----1--1-1----1-1----|
---------------------------|----------------------|
---------------------------|----------------------|

  S S S S E  Q    S S S S E     Q.     S S S S E  E  E
-----------------------------|--------------------------|
--4-4-4-4-4-------4-4-4-4-4--|---------4-4-4-4----4-----|
-----------------------------|--------------------------|
-----------------------------|--------------------------|

  S S S S E  E  E  E  E  E     E  E  Q       S S S S S S S S S S S S S S S S
----------------------------|-------------|----------------------------------|
--2-2-2-2-2-----2--2-----2--|-----2--2----|----------------------------------|
----------------------------|-------------|--4-4-4-4-4-4-4-4-4-4-4-4-4-4-4-4-|
----------------------------|-------------|----------------------------------|

  S S S S S S S S S S S S S S S S    S S S S S S S S S S S S S S S S
----------------------------------|----------------------------------|
----------------------------------|----------------------------------|
--4-4-4-4-4-4-4-4-0-0-0-0-0-0-0-0-|--0-0-0-0-------------------------|
----------------------------------|----------2-2-2-2-2-2-2-2-2-2-2-2-|

  S S S S S S S S S S S S S S S S    S S S S S S S S S S S S S S S S
----------------------------------|----------------------------------|
----------------------------------|----------------------------------|
----------2-2-2-2-2-2-2-2-2-2-2-2-|--4-4-4-4-4-4-4-4-4-4-4-4-4-4-4-4-|
--2-2-2-2-------------------------|----------------------------------|

  S S S S S S S S S S S S S S S S    Q    Q    Q    Q       H        H
----------------------------------|--9----8--------------|--------------------|
----------------------------------|------------9---------|--------------------|
----------------------------------|-----------------9----|--------------------|
--0-0-0-0-0-0-0-0-2-2-2-2-2-2-2-2-|----------------------|--3--------1--------|

  S S S S S S S S S S S S S S S S    S S S S S S S S S S S S S S S S
----------------------------------|----------------------------------|
----------------------------------|----------------------------------|
--4-4-4-4-4-4-4-4-4-4-4-4-4-4-4-4-|--4-4-4-4-4-4-4-4-0-0-0-0-0-0-0-0-|
----------------------------------|----------------------------------|

  S S S S S S S S S S S S S S S S    S S S S S S S S S S S S S S S S
----------------------------------|----------------------------------|
----------------------------------|----------------------------------|
--0-0-0-0-------------------------|----------2-2-2-2-2-2-2-2-2-2-2-2-|
----------2-2-2-2-2-2-2-2-2-2-2-2-|--2-2-2-2-------------------------|

  S S S S S S S S S S S S S S S S    S S S S S S S S S S S S S S S S
----------------------------------|----------------------------------|
----------------------------------|----------------------------------|
--4-4-4-4-4-4-4-4-4-4-4-4-4-4-4-4-|----------------------------------|
----------------------------------|--0-0-0-0-0-0-0-0-2-2-2-2-2-2-2-2-|

  Q    Q    Q    Q       H.           E  E     S S S S E  Q    E  E  E
--9----8--------------|---------------------|---------------------------|
------------9---------|---------------------|----------4-------------4--|
-----------------9----|---------------------|---------------------------|
----------------------|---------------6--3--|--2-2-2-2---------2--------|

  S S S S E  E  S S S S S S S S    S S S S E  Q    E  E  E
--------------------------------|---------------------------|
----------4-------------4-4-4-4-|----------4-------------4--|
--------------------------------|---------------------------|
--2-2-2-2-------2-2-2-2---------|--2-2-2-2---------2--------|

  S S S S E  E  S S S S S S S S    S S S S E  Q    E  E  E
--------------------------------|---------------------------|
----------4-------------4-4-4-4-|----------4-------------4--|
--------------------------------|---------------------------|
--2-2-2-2-------2-2-2-2---------|--2-2-2-2---------2--------|

  S S S S E  E  S S S S S S S S    S S S S S S Q    Q    E
--------------------------------|---------------------------|
----------4-------------4-4-4-4-|---------------------------|
--------------------------------|------------------------3--|
--2-2-2-2-------2-2-2-2---------|--2-2-3-3-2-2------2-------|

  E  Q    Q    E  S S E
-------------------------|-----||
-------------------------|-----||
--L-------1--------------|-----||
-----0---------0--2-2----|-----||

Duration Legend
---------------

E - 8th
. - note dotted
						
# Artist Title Tabdesignator