Dream Theater

The Mirror Ver 2


							
Bass (B E A D G)
  Q=113      Q=82
 4/4        4/4

  W          S S S S S S S S S S S S S S S S
|----------|---------------------------------|
|----------|---------------------------------|
|----------|---------------------------------|
|----------|---------------------------------|
|----------|-0-0-0---0-0-0---0-0-0---0-0-0---|

  Q=113
 4/4

  S S S S S S S S S E S S S E   S S S S S S S S S E S S S E
|-----------------------------|-----------------------------|
|-----------------------------|-----------------------------|
|-----------------------------|-----------------------------|
|-----------------------------|-----------------------------|
|-0-0---0---0---0-0---0-0-0---|-0-0---0---0---0-0---0-0-0---|

  S S S S S S S S S E S S S E   S S S S S S S S S E S S S E
|-----------------------------|-----------------------------|
|-----------------------------|-----------------------------|
|-----------------------------|-----------------------------|
|-----------------------------|-----------------------------|
|-0-0---0---0---0-0---0-0-0---|-0-0---0---0---0-0---0-0-0---|

                                Q=82
                               4/4

  S S S S S S S S S E S S S E   S S S S S S S S S S S S S S S S
|-----------------------------|---------------------------------|
|-----------------------------|---------------------------------|
|-----------------------------|---------------------------------|
|-----------------------------|---------------------------------|
|-0-0---0---0---0-0---0-0-0---|-0-0-0---0-0-0---0-0-0---0-0-0---|

  S S S S S S S S S S S S S S S S   S S S S S S S S S S S S S S S S
|---------------------------------|---------------------------------|
|---------------------------------|---------------------------------|
|---------------------------------|---------------------------------|
|---------------------------------|---------------------------------|
|-0-0-0---0-0-0---0-0-0---0-0-0---|-0-0-0---0-0-0---0-0-0---0-0-0---|

                                    Q=82
                                   4/4

  S S S S S S S S S S S S S S S S   S S S S S S S S S S S S S S S S
|---------------------------------|----------------------------------|
|---------------------------------|----------------------------------|
|---------------------------------|----------------------------------|
|---------------------------------|----------------------------------|
|-0-0-0---0-0-0---0-0-0---0-0-0---|-0-0-0---0-0-0---0-0-0---0-0-0----|

  Q=83                              Q=85
 4/4                               4/4

  S S S S S S S S S S S S S S S S   S S S S S S S S S S S S S S S S
|---------------------------------|---------------------------------|
|---------------------------------|---------------------------------|
|---------------------------------|---------------------------------|
|---------------------------------|---------------------------------|
|-0-0-0---0-0-0---0-0-0---0-0-0---|-0-0-0---0-0-0---0-0-0---0-0-0---|

  Q=43        Q=21                  Q=43
 4/4                               9/16

  S S S S S S S S S S S S S S S S   S S S S S S S S S   S S S S S S S S S
|---------------------------------|-------------------|--------------------|
|---------------------------------|-------------------|--------------------|
|---------------------------------|-------------------|--------------------|
|---------------------------------|-------------------|--------------------|
|-0-0-0---0-0-0---0-0-0---0-0-0---|-0-0-0-0-0-0-0-0-0-|-0-0-0-0-0-0-0-0-0--|

  S S S S S S S S S   S S S S S S S S S
|-------------------|-------------------|
|-------------------|-------------------|
|-------------------|-------------------|
|-------------------|-------------------|
|-0-0-0-0-0-0-0-0-0-|-0-0-0-0-0-0-0-0-0-|

  S S S S S S S S S   S S S S S S S S S
|-------------------|-------------------|
|-------------------|-------------------|
|-------------------|-------------------|
|-------------------|-------------------|
|-0-0-0-0-0-0-0-0-0-|-0-0-0-0-0-0-0-0-0-|

  S S S S S S S S S   S S S S S S S S S
|-------------------|-------------------|
|-------------------|-------------------|
|-------------------|-------------------|
|-------------------|-------------------|
|-0-0-0-0-0-0-0-0-0-|-0-0-0-0-0-0-0-0-0-|

  S S S S S S S S S   S S S S S S S S S
|-------------------|-------------------|
|-------------------|-------------------|
|-------------------|-------------------|
|-------------------|-------------------|
|-0-0-0-0-0-0-0-0-0-|-0-0-0-0-0-0-0-0-0-|

  S S S S S S S S S   S S S S S S S S S
|---------1---------|-------------------|
|---------5-3-------|-------------------|
|-------0-----------|-------------------|
|-----------2-0-----|-------------------|
|-0-0-0-0-----0-0-0-|-0-0-0-0-0-0-0-0-0-|

  S S S S S S S S S   S S S S S S S S S
|-------------------|-----------------2-|
|-------------------|-------------------|
|-------------------|-------------------|
|-------------------|-------------------|
|-0-0-0-0-0-0-0-0-0-|-0-0-0-0-0-0-0-0-0-|

    Q=43  Q=113
  S S S S S S S S S   S S S S S S S S S   S S S S S S S S S   S S S E S S S S
|-1-----------------|-------------------|-------------------|------------------|
|-5-3-2-------------|-------------------|-------------------|------------------|
|-------------------|-------------------|-------------------|------------------|
|---2---------------|-------------------|-------------------|------------------|
|-------0-0---0---0-|---0---0-0-----0-0-|-0-----0-0---0---0-|---0-0---0-0-0----|

  S S S S S S S S S   S S S S S S E S   S S S S S S S S S   S S S S S S S S S
|-------------------|-----------------|-------------------|--------------------|
|-------------------|---------------0-|-0---0---0---0-0---|---0-0-0-----0-0----|
|-------------------|-----------------|-------------------|--------------------|
|-------------------|-----------------|-------------------|--------------------|
|---0-0---0---0---0-|-0-----0-0-0-----|-------------------|--------------------|

  S S S S S S S S S   S S S S S S S S S   S S S S S S S S S   E S S S S S S S
|-------------------|-------------------|-------------------|------------------|
|-0---0---0-0-2---2-|-2-2---0-----------|-------------------|------------------|
|-------------------|-------------------|-------------------|------------------|
|-------------------|-------------------|-------------------|------------------|
|-------------------|---------0-0---0---|-0---0-0-----0-0-0-|---0-0---0---0----|

  S S S S S S S S S   S S S S S S S S S   E S S S S S S S   S S S S S S S S S
|-------------------|-------------------|-----------------|--------------------|
|-------------------|-3-3---3---3---3-3-|---3-3-3---------|--------------------|
|-------------------|-------------------|-----------------|--------------------|
|-------------------|-------------------|-----------------|--------------------|
|-0-0-----0-0-0-----|-------------------|-------------1-1-|---1---1---1-1------|

  S S S E S S S S   S S S S S S S S S   S S S S S S S S S   S S S E S S S S
|-----------------|-------------------|-------------------|-----------------|
|-----------------|-------------------|-------------------|-----------------|
|-----------------|-------------------|-------------------|-----------------|
|-----------------|-------------------|-------------------|-----------------|
|-1-1-1---0-0---0-|---0---0-0-----0-0-|-0-----0-0---0---0-|---0-0---0-0-0---|

  S S S S S S S S S   S S S S S S E S   S S S S S S S S S   S S S S S S S S S
|-------------------|-----------------|-------------------|--------------------|
|---0-0---0---0---0-|-0-----0-0-0---0-|-0---0---0---0-0-2-|---2-2-2---0--------|
|-------------------|-----------------|-------------------|--------------------|
|-------------------|-----------------|-------------------|--------------------|
|-------------------|-----------------|-------------------|-------------0-0----|

  S S S S S S E S   S S S S S S S S S   S S S S S S S S S   E S S S S S S S
|-----------------|-------------------|-------------------|-----------------|
|-----------------|-------------------|-------------------|---3-3---3---3---|
|-----------------|-------------------|-------------------|-----------------|
|-----------------|-------------------|-------------------|-----------------|
|-0---0---0-0---0-|-0-0-----0-0---0---|-0---0-0-----0-0-0-|-----------------|

                      Q=173
  S S S S S S S S S   E S +S  E E S
|-------------------|---------------|
|-3-3-----3-3-3-----|---------------|
|-------------------|---------------|
|-------------------|---------------|
|-------------------|-1-1-(1)-1---1-|

              Q=43  Q=173
  +S  E E S S E   S S S S E E S   S E E S +S  S S
|---------------|---------------|-----------------|
|---------------|---------------|-----------------|
|---------------|---------------|-----------------|
|---------------|---------------|-----------------|
|-(1)-1-1-----1-|-1-1-----0-0---|---0-0-0-(0)-----|

  E S +S  E E S   +S  E E S S E
|---------------|---------------|
|---------------|---------------|
|---------------|---------------|
|---------------|---------------|
|-0-0-(0)-0---0-|-(0)-0-0-----0-|

  E S +S  S S E S   +S  E E S +S  E   E S S E E S
|-----------------|-----------------|-------------|
|-----------------|-----------------|-------------|
|-----------------|-----------------|-------------|
|-----------------|-----------------|-------------|
|-2-2-(2)-----2-2-|-(2)-2---2-(2)-2-|-2-----2-2-2-|

  +S  S S E S +S  E   E S +S  E E S
|-------------------|---------------|
|-----------0-(0)-0-|---0-(0)-0-0---|
|-------------------|---------------|
|-------------------|---------------|
|-(2)-----2---------|---------------|

  S E E S +S  S S   E S +S  E E S   +S  E E S S E
|-----------------|---------------|----------------|
|---0-0-0-(0)-----|-0-0-(0)-0---0-|-(0)------------|
|-----------------|---------------|----------------|
|-----------------|---------------|----------------|
|-----------------|---------------|-----0-0-----0--|

  E S +S  S S E S   +S  E E S +S  E   E S S E E S
|-----------------|-----------------|-------------|
|-----------------|-----------------|---------3-3-|
|-----------------|-----------------|-------------|
|-----------------|-----------------|-------------|
|-0-0-(0)-----0-0-|-(0)-0---0-(0)-0-|-0-----0-----|

  +S  S S E S +S  E   E S +S  E E S
|-------------------|----------------|
|-(3)-----3-3-(3)-3-|---3-(3)-3-3----|
|-------------------|----------------|
|-------------------|----------------|
|-------------------|----------------|

  S E E S +S  S S   E S +S  E E S   +S  E E S S E
|-----------------|---------------|---------------|
|---3-3-3-(3)-----|-3-------------|---------------|
|-----------------|---------------|---------------|
|-----------------|---------------|---------------|
|-----------------|---2-(2)-2---2-|-(2)-2-2-----2-|

  E S +S  S S E S   +S  E E S +S  E
|-----------------|------------------|
|-----------------|---------------2--|
|-----------------|------------------|
|-----------------|------------------|
|-2-2-(2)-----2-2-|-(2)-2---0-(0)----|

  E S +S  E E S   +S  E E S +S  E   E S +S  E E S
|---------3-----|-----------------|---3-(3)-------|
|---2-(2)---2---|-----2---2-(2)---|-2-------2---2-|
|---------------|-------2---------|---------------|
|---------------|-----------------|---------------|
|-0-----------0-|-(0)-----------0-|-----------0---|

  +S  E E S +S  S S   E S +S  E E S   +S  E E S S E
|-------------------|---------------|-----------------|
|-(2)---------------|---------------|-----------------|
|-----2-------------|---------------|-----------------|
|-------------------|---------------|-----------------|
|-------1-1-(1)-----|-1-1-(1)-1---1-|-(1)-1-1-----1---|

              Q=173     Q=21 Q=21                            Q=116
  E S +S  S S E S   +S  E Q  S S   S S S S S S S S S   S S S S S S S S S
|-----------------|--------------|-------------------|--------------------|
|-----------------|--------------|-------------------|--------------------|
|-----------------|--------------|-------------------|--------------------|
|-----------------|--------------|-------------------|--------------------|
|-1-1-(1)-----1-0-|-(0)-0----0-0-|-0-0-0-0-0-0-0-0-0-|-0-0-0-0-0-0-0---0--|

  S S S S S S S S S   S S S S S S S S S   S S S E S S S S   S S S S S S S S S
|-------------------|-------------------|-----------------|--------------------|
|-------------------|-------------------|-----------------|---0-0---0---0---0--|
|-------------------|-------------------|-----------------|--------------------|
|-------------------|-------------------|-----------------|--------------------|
|---0---0-0-----0-0-|-0-----0-0---0---0-|---0-0---0-0-0---|--------------------|

  S S S S S S E S   S S S S S S S S S   S S S S S S S S S   S S S S S S E S
|-----------------|-------------------|-------------------|-----------------|
|-0-----0-0-0---0-|-0---0---0---0-0-2-|---2-2-2---0-------|-----------------|
|-----------------|-------------------|-------------------|-----------------|
|-----------------|-------------------|-------------------|-----------------|
|-----------------|-------------------|-------------0-0---|-0---0---0-0---0-|

  S S S S S S S S S   S S S S S S S S S   E S S S S S S S   S S S S S S S S S
|-------------------|-------------------|-----------------|--------------------|
|-------------------|-------------------|---3-3---3---3---|-3-3-----3-3-3------|
|-------------------|-------------------|-----------------|--------------------|
|-------------------|-------------------|-----------------|--------------------|
|-0-0-----0-0---0---|-0---0-0-----0-0-0-|-----------------|--------------------|

  S S S S S S S S S   E S S S S S S S   S S S S S S S S S   S S S E S S S S
|-------------------|-----------------|-------------------|-----------------|
|-------------------|-----------------|-------------------|-----------------|
|-------------------|-----------------|-------------------|-----------------|
|-------------------|-----------------|-------------------|-----------------|
|-1-1---1---1---1-1-|---1-1-1-----0-0-|---0---0---0-0-----|-0-0-0---0-0---0-|

  S S S S S S S S S   S S S S S S S S S   S S S E S S S S   S S S S S S S S S
|-------------------|-------------------|-----------------|--------------------|
|-------------------|-------0-0---0---0-|---0-0---0-0-0---|---0-0---0---0---0--|
|-------------------|-------------------|-----------------|--------------------|
|-------------------|-------------------|-----------------|--------------------|
|---0---0-0-----0-0-|-0-----------------|-----------------|--------------------|

  S S S S S S S S S   S S S S S S S S S   S S S S S S S S S   S S S S S S E S
|-------------------|-------------------|-------------------|------------------|
|-0-2---2-2-2---0---|-------------------|-------------------|------------------|
|-------------------|-------------------|-------------------|------------------|
|-------------------|-------------------|-------------------|------------------|
|-----------------0-|-0---0---0---0-0---|---0-0-0-----0-0---|-0---0---0-0---0--|

                                                                        Q=86
  S S S S S S S S S   S S S S S S S S S   E S S S S S S S   S S S S S S S S S
|-------------------|-------------------|-----------------|--------------------|
|---------3-3---3---|-3---3-3-----3-3-3-|-----------------|--------------------|
|-------------------|-------------------|-----------------|--------------------|
|-------------------|-------------------|-----------------|--------------------|
|-0-0---------------|-------------------|---1-1---1---1---|-1-1-----1-1-1------|

  E S S  E  E.    +S  E S S S +S  E   S S S +S  E +E  S
|-------12-11--|-(11)-----9---------|-------------------|
|-2-2-2--------|------9-----9-(9)-2-|-2-2---------------|
|--------------|--------9-----------|-----5-(5)-7-(7)-7-|
|--------------|--------------------|-------------------|
|--------------|--------------------|-------------------|

  +S   S  S E S +S  S S    E  S  +E.  S  S  S
|--------11-9-----------|-15-14-(14)-------14-|
|-------------2-(2)-2-2-|------------14-14----|
|-(7)-10----------------|---------------------|
|-----------------------|---------------------|
|-----------------------|---------------------|

   S  S  S  S  S  S  +S  S S   S S S S S S E S
|-12-------------------------|-----------------|
|-------12----12---------2---|-2-2-----2-2---2-|
|----------------------------|-----------------|
|----12----12----12-(12)-----|-----------------|
|----------------------------|-----------------|

  S S S E S S S S   E S S S S S S S
|---3-2-3---------|------------------|
|-2-------2---2-2-|---2-2-----2-2-3--|
|-----------------|------------------|
|-----------------|------------------|
|-----------------|------------------|

  S E S S S S S S   S S S S S S S S S
|-----------------|-------------------|
|-2-3-2---2-2-----|-2-2-----2-2-2-0-2-|
|-----------------|-------------------|
|-----------------|-------------------|
|-----------------|-------------------|

  +E. Q  E   Q  S S E.   +S  E +E  S +S  E
|----------|-----------|--------------------|
|-(2)-2----|-3--2-0-2--|-(2)-2-(2)-------0--|
|----------|-----------|--------------------|
|----------|-----------|--------------------|
|--------0-|-----------|-----------0-(0)----|

  Q=20
  +E  S S S S S S S   S S S S S S S S S
|-----4---4---4---4-|---4---4---4-----2-|
|-(0)---------------|-----------------4-|
|-----2-2-2-2-2-2-2-|-2-2-2-2-2-2-2-2---|
|-------------------|---------------2---|
|-------------------|-------------------|

  S S S S S S S S S   S S S S S S S S S
|-4---4---4---4---4-|---4---4-----2------|
|-------------------|-------------4-3-3--|
|-2-2-2-2-2-2-2-2-2-|-2-2-2-2-2-2--------|
|-------------------|-----------2--------|
|-------------------|---------------6----|

  S S S S S S S S S   S S S S S S S S S
|-------------------|-------------------|
|-3-3-3-3-3-3-------|-------------------|
|-------------------|-------------------|
|-------------------|-------------------|
|-6---6---6---2-2-2-|-2-2-2-2-2-1-1-1-1-|

                        Q=20
  S S S S S S S S S   S S S S S S S S S
|-------------------|-----------4-4-4---|
|-------------------|-------------7-----|
|-------------------|-----------5---2---|
|-------------------|---------2-------2-|
|-1-1-1-1-1-1-1-1-1-|-1-1-1-0-----------|

  S S S S S S S S S   S S S S S S S S S
|-4-4-------4-4---4-|---------7-----9-7-|
|---7---4---7-------|---0-------0-----7-|
|-5-------5---2-5---|-5---5---5---5-8---|
|---------7---------|-7-----5-----5-----|
|-----0-------------|---3-------3-------|

  S S S S S S S S S   S S S S S S S S S
|-------7-----------|---4-4-4---4-4-----|
|-0-------2-2-2-2---|-----7-------7---4-|
|---5---5-----------|---5---2---5-------|
|-----5-------------|-2-------2---------|
|-3-------5---5-5-0-|---------------0---|

  S S S S S S S S S   S S S S S S S S S
|---4-4---4---------|-------------------|
|---7---------3-3-3-|-3-3-3-3-3---------|
|-5---2-5---5-------|-------------------|
|-7---------7-------|-------------------|
|-------------6---6-|-6-6---6-6-1-1-1-1-|

  S S S S S S S S S   S S S S S S S S S
|---2-5-----------4-|-2---------------2-|
|-------------4-----|-------------0-----|
|-----5---------5---|---2-----2-----2---|
|-------5-------7---|-----2---2-2-------|
|-1-----5-0-0-------|-----3-0-----0-----|

                                    Q=20
  S S S S S S S S S   S S S S S S S S S
|-------------2---7-|-7---2-------------|
|---0-0-----4-0-----|---------4-2-2-2-2-|
|-2-----5-------5-7-|-9-----5-----------|
|---------5-----5---|-------5-----------|
|---0-------3-------|---3-----3-5-5-5-5-|

  S S S S S S S S S   S S S S S S S S S
|---------4-2-------|-------4-2---------|
|-------------------|-------------2-3-3-|
|---------2-2-2-----|-------2-2-2-------|
|---------------2---|-------------------|
|-0-0-0-0-------3-0-|-0-0-0---------6-6-|

          Q=21              Q=173
  S S S S S S S S S   S S S S S S +S  E
|-------------------|-------------------|
|-3-3---3-3-3-------|-------------------|
|-----8-------------|-------------------|
|-------------------|-------------------|
|---6-6-6---6-1-1-1-|-1-1-1-1-1-0-(0)-0-|

  E S +S  E E S   S E E S +S  S S   E S +S  E E S
|---------------|-----------------|----------------|
|---------------|-----------------|----------------|
|---------------|-----------------|----------------|
|---------------|-----------------|----------------|
|---0-(0)-0-0---|---0-0-0-(0)-----|-0-0-(0)-0---0--|

  +S  E E S S E   E S +S  S S E S   +S  E E S +S  E
|---------------|-----------------|-----------------|
|---------------|-----------------|-----------------|
|---------------|-----------------|-----------------|
|---------------|-----------------|-----------------|
|-(0)-2-2-----2-|-2-2-(2)-----2-2-|-(2)-2---2-(2)-2-|

  E S S E E S   +S  S S E S +S  E
|-------------|--------------------|
|---------0-0-|-(0)-----0-0-(0)-0--|
|-------------|--------------------|
|-------------|--------------------|
|-2-----2-----|--------------------|

  E S +S  E E S   S E E S +S  S S   E S +S  E E S
|---------------|-----------------|---------------|
|---0-(0)-0-0---|---0-0-0-(0)-----|-0-------------|
|---------------|-----------------|---------------|
|---------------|-----------------|---------------|
|---------------|-----------------|---0-(0)-0---0-|

  +S  E E S S E   E S +S  S S E S
|---------------|------------------|
|---------------|------------------|
|---------------|------------------|
|---------------|------------------|
|-(0)-0-0-----0-|-0-0-(0)-----0-0--|

  +S  E E S +S  E   E S S E E S   +S  S S E S +S  E
|-----------------|-------------|-------------------|
|---------------3-|-3-----3-3-3-|-(3)-----3-3-(3)-3-|
|-----------------|-------------|-------------------|
|-----------------|-------------|-------------------|
|-(0)-0---0-(0)---|-------------|-------------------|

  E S +S  E E S   S E E S +S  S S
|---------------|------------------|
|---3-(3)-3-3---|---3--------------|
|---------------|------------------|
|---------------|------------------|
|---------------|-----2-2-(2)------|

  E S +S  E E S   +S  E E S S E   E S +S  S S E S
|---------------|---------------|-----------------|
|---------------|---------------|---------------2-|
|---------------|---------------|-----------------|
|---------------|---------------|-----------------|
|-2-2-(2)-2---2-|-(2)-2-2-----2-|-2-2-(2)-----0---|

  +S  E E S +S  E   E S +S  E E S   +S  E E S +S  E
|---------3-(3)---|---------------|-------3-----------|
|-(2)---2-------2-|---2-(2)---2---|-----2---2-(2)-----|
|-----------------|---------2-----|-------------------|
|-----------------|---------------|-------------------|
|-----0-----------|-0-----------0-|-(0)-----------0---|

  E S +S  E E S   S E E S +S  S S   E S +S  E E S
|---------------|-----------------|---------------|
|-2-------------|-----------------|---------------|
|---2-(2)-------|-----------------|---------------|
|---------------|-----------------|---------------|
|---------1-1---|---1-1-1-(1)-----|-1-1-(1)-1---1-|

              Q=86
  +S  E E S S E   E S S  E  E.    +S  E S S S +S  E
|---------------|-------12-11--|-(11)-----9-----------|
|---------------|-2-2-2--------|------9-----9-(9)-2---|
|---------------|--------------|--------9-------------|
|---------------|--------------|----------------------|
|-(1)-1-1-----1-|--------------|----------------------|

  S S S +S  E +E  S   +S   S  S E S +S  S S
|-------------------|--------11-9-----------|
|-2-2---------------|-------------2-(2)-2-2-|
|-----5-(5)-7-(7)-7-|-(7)-10----------------|
|-------------------|-----------------------|
|-------------------|-----------------------|

   E  S  +E.  S  S  S    S  S  S  S  S  S  +S  S S
|-15-14-(14)-------14-|-12-------------------------|
|------------14-14----|-------12----12---------2---|
|---------------------|----------------------------|
|---------------------|----12----12----12-(12)-----|
|---------------------|----------------------------|

  S S S S S S E S   S S S E S S S S   E S S S S S S S   S E S S S S S S
|-----------------|---3-2-3---------|-----------------|-----------------|
|-2-2-----2-2---2-|-2-------2---2-2-|---2-2-----2-2-3-|-2-3-2---2-2-----|
|-----------------|-----------------|-----------------|-----------------|
|-----------------|-----------------|-----------------|-----------------|
|-----------------|-----------------|-----------------|-----------------|

  S S S S S S S S S   +E. Q  E   Q  S S E.
|-------------------|----------|-----------|
|-2-2-----2-2-2-0-2-|-(2)-2----|-3--2-0-2--|
|-------------------|----------|-----------|
|-------------------|----------|-----------|
|-------------------|--------0-|-----------|

            Q=80      Q=120
  +S  E +E  S +S  E   +E  S +Q.     +H     +S
|-------------------|-------------|------------|
|-(2)-2-(2)-------0-|-(0)---------|------------|
|-------------------|-------------|------------|
|-------------------|-------------|------------|
|-----------0-(0)---|-----0-(0)---|-(0)----(0)-|

  +H     +S    +Q..   E   +H     +S
|------------|----------|------------|
|------------|----------|------------|
|------------|----------|------------|
|------------|--------3-|-(3)----(3)-|
|-(0)----(0)-|-(0)------|------------|

|------------|------------|----------|------------|
|------------|------------|----------|------------|
|------------|------------|----------|------------|
|-(3)----(3)-|-(3)----(3)-|-(3)------|------------|
|------------|------------|-----0----|-(0)----(0)-|

|------------|----------|------------|------------|
|------------|----------|------------|------------|
|------------|----------|------------|------------|
|------------|--------3-|-(3)----(3)-|-(3)----(3)-|
|-(0)----(0)-|-(0)------|------------|------------|

               Q=125
  +H     +S    +Q   E +E  S   +S  E E S +S  E
|------------|--------------|-------------------|
|------------|--------------|---------4-(4)-2---|
|------------|--------------|-------------------|
|-(3)----(3)-|-(3)--------3-|-(3)---3-----------|
|------------|------0-(0)---|-----0-------------|

  Q  E E S   +S  E E S +E.   Q  E E S   +S  E E S +E.
|----------|---------------|----------|---------------|
|----------|---------------|----------|-----4-2-------|
|----------|---------------|----------|---------------|
|-2----2---|-----2---3-(3)-|----3---3-|-(3)-----2-(2)-|
|----0---0-|-(0)---0-------|-0----0---|---------------|

  E S +S  E E S   +S  E +E  S +E.   E S +S  E E S
|---------------|-----------------|----------------|
|-------------4-|-(4)-3-(3)-------|-----------4-2--|
|---------------|-----------------|----------------|
|---3-(3)---3---|-----------------|-3-------3------|
|-0-------0-----|-----------0-(0)-|---0-(0)--------|

  +S  E +E  S +S  E   E S +S  E E.   +S  E +E  S +S  E
|-------------------|--------------|-------------------|
|-(2)---------------|--------------|-------------------|
|-------------------|--------------|-------------------|
|-----2-(2)-------2-|---2-(2)---3--|-(3)-------3-(3)---|
|-----------0-(0)---|-0-------0----|-----0-(0)-------0-|

  E S +S  E E.   +S  E E S +S  E   E S +E. E.
|--------------|-----------------|------------|
|---4-(4)-2----|-----------------|-4-3-(3)----|
|--------------|-----------------|------------|
|-3---------2--|-(2)---3-------3-|------------|
|--------------|-----0---0-(0)---|---------0--|

  +S  E E S +S  E   E S +E. E S   +S  E E S +S  E
|-----------------|-------------|-----------------|
|---------------4-|-2-----------|-----------------|
|-----------------|-------------|-----------------|
|-----3---3-(3)---|---2-(2)---2-|-(2)---2-------3-|
|-(0)---0---------|---------0---|-----0---0-(0)---|

  +E  S +E. E S   +S  E E S +S  E   +E  S +S  E E S
|---------------|-----------------|-----------------|
|---------------|-------4-2-(2)---|-----------------|
|---------------|-----------------|-----------------|
|-(3)-------3---|-----3---------2-|-(2)-------3---3-|
|-----0-(0)---0-|-(0)-------------|-----0-(0)---0---|

  +S  E Q  E   +E  S +S  E E S   +S  E Q  E
|------------|-----------------|------------|
|-----4-3----|---------------4-|-(4)-2------|
|------------|-----------------|------------|
|-(3)--------|-----3-(3)---3---|-------2----|
|----------0-|-(0)-------0-----|----------0-|

  E S +S  E E S   +E. Q  E   E S +S  E E S   +E. E S +S  E
|---------------|----------|---------------|----------------|
|---------------|----------|---------4-2---|----------------|
|---------------|----------|---------------|----------------|
|-2-------2---3-|-(3)----3-|---3-(3)-----2-|-(2)---3-(3)----|
|---0-(0)---0---|-----0----|-0-------------|-----0-------0--|

  E S +S  E +E  S   +E. E S +S  E   E S +S  E +E  S
|-----------------|---------------|-----------------|
|---4-(4)-3-(3)---|---------------|-4-2-(2)---------|
|-----------------|---------------|-----------------|
|-3---------------|-----3-------3-|---------2-(2)---|
|---------------0-|-(0)---0-(0)---|---------------0-|

  +S  E E S +S  E   Q  E +E  S   +S  E E S +S  E
|-----------------|------------|-----------------|
|-----------------|------------|---------4-(4)-2-|
|-----------------|------------|-----------------|
|-----2---2-(2)---|-3--------3-|-(3)---3---------|
|-(0)---0-------0-|----0-(0)---|-----0-----------|

  Q  E E S   +S  E E S +E.   Q  E E S   +S  E E S +E.
|----------|---------------|----------|---------------|
|----------|-------4-3-(3)-|----------|-----4-2-------|
|----------|---------------|----------|---------------|
|-2----3---|-----3---------|----3---3-|-(3)-----2-(2)-|
|----0---0-|-(0)-----------|-0----0---|---------------|

  E S +S  E E S   +S  E +E  S +E.   E S +S  E E S
|---------------|-----------------|----------------|
|---------------|-----------------|-----------4-2--|
|---------------|-----------------|----------------|
|---2-(2)---2---|-----3-(3)-------|-3-------3------|
|-0-------0---0-|-(0)-------0-(0)-|---0-(0)--------|

  +S  E +E  S +S  E   E S +S  E E.   +S  E +E  S +S  E
|-------------------|--------------|-------------------|
|-(2)---------------|---------4-3--|-(3)---------------|
|-------------------|--------------|-------------------|
|-----2-(2)-------3-|---3-(3)------|-----------3-(3)---|
|-----------0-(0)---|-0------------|-----0-(0)-------0-|

  E S +S  E E.   +S  E E S +S  E   E S +E. E.
|--------------|-----------------|------------|
|---4-(4)-2----|-----------------|------------|
|--------------|-----------------|------------|
|-3---------2--|-(2)---2-------2-|---3-(3)----|
|--------------|-----0---0-(0)---|-0-------0--|

  +S  E E S +S  E   E S +E. E S   +S  E E S +S  E
|-----------------|-------------|-----------------|
|---------------4-|-2-----------|---------4-(4)-3-|
|-----------------|-------------|-----------------|
|-----3---3-(3)---|---2-(2)---3-|-(3)---3---------|
|-(0)---0---------|---------0---|-----0-----------|

  +E  S +E. E S   +S  E E S +S  E   +E  S +S  E E S
|---------------|-----------------|-----------------|
|-(3)-----------|-------4-2-(2)---|-----------------|
|---------------|-----------------|-----------------|
|-----------3---|-----3---------2-|-(2)-------2---2-|
|-----0-(0)---0-|-(0)-------------|-----0-(0)---0---|

  +S  E Q  E   +E  S +S  E E S   +S  E Q  E
|------------|-----------------|------------|
|------------|---------------4-|-(4)-2------|
|------------|-----------------|------------|
|-(2)---3----|-----3-(3)---3---|-------2----|
|-----0----0-|-(0)-------0-----|----------0-|

  E S +S  E E S   +E. Q  E   E S +S  E E S   +E. E S +S  E
|---------------|----------|---------------|----------------|
|-----------4-3-|-(3)------|---------4-2---|----------------|
|---------------|----------|---------------|----------------|
|-3-------3-----|--------3-|---3-(3)-----2-|-(2)---2-(2)----|
|---0-(0)-------|-----0----|-0-------------|-----0-------0--|

  E S +S  E +E  S   +E. E S +S  E   E S +S  E +E  S
|-----------------|---------------|-----------------|
|-----------------|---------------|-4-2-(2)---------|
|-----------------|---------------|-----------------|
|-2-------3-(3)---|-----3-------3-|---------2-(2)---|
|---0-(0)-------0-|-(0)---0-(0)---|---------------0-|

  +S  E E S +S  E   Q  E +E  S   +S  E E S +S  E
|-----------------|------------|-----------------|
|---------------4-|-3----------|---------4-(4)-2-|
|-----------------|------------|-----------------|
|-----3---3-(3)---|----------3-|-(3)---3---------|
|-(0)---0---------|----0-(0)---|-----0-----------|

  Q  E E S   +S  E E S +E.   Q  E E S   +S  E E S +E.
|----------|---------------|----------|---------------|
|----------|---------------|----------|-----4-2-------|
|----------|---------------|----------|---------------|
|-2----2---|-----2---3-(3)-|----3---3-|-(3)-----2-(2)-|
|----0---0-|-(0)---0-------|-0----0---|---------------|

                      Q=125
  E S +S  E E S   +S  E +E  S E.   W
|---------------|----------------|------|
|-------------4-|-(4)-3-(3)------|------|
|---------------|----------------|------|
|---3-(3)---3---|----------------|------|
|-0-------0-----|----------------|------|

Duration Legend
---------------

W - whole; H - half; Q - quarter; E - 8th; S - 16th; T - 32nd; X - 64th
Tempo markers -  = BPM(8/16=s8/s16), where s8
						
# Artist Title Tabdesignator