Dream Theater

Learning To Live Ver 2


							
Standard Tuning 5 String bass
is full of time signature changes, so pay attention to it and
John Myung actually uses a 6 strings bass, but in this particulaary
     W                H        Q    E     W                H        Q    E
G||------------------------------------|------------------------------------|
D||------------------------------------|------------------------------------|
A||------------------------------------|------------------------------------|
E||------------------------------------|------------------------------------|
B||------------------------------------|------------------------------------|

  W                H        Q    E     W                H        Q    E
------------------------------------|------------------------------------|
------------------------------------|------------------------------------|
------------------------------------|------------------------------------|
------------------------------------|------------------------------------|
------------------------------------|------------------------------------|

  E  E  E  E  E  E  E  E  E  E  E  E  E  E  E
-----------------------------------------------|
-----------------------------------------------|
--------------------4--4--4--2--2--2-----------|
--2--2--2--5--5--5--------------------5--5--4--|
-----------------------------------------------|

  E  E  E  E  E  E  E  E  E   E   E   E   E   E   E
-----------------------------------------------------|
-----------------------------------------------------|
--9--9--9--------------------11--11--11--12--12--11--|
-----------5--5--5--7--7--7--------------------------|
-----------------------------------------------------|

  E  E  E  E  E  E  E  E  E  E  E  E  E  E  E
-----------------------------------------------|
-----------------------------------------------|
--------------------4--4--4--2--2--2-----------|
--2--2--2--5--5--5--------------------5--5--4--|
-----------------------------------------------|

  E  E  E  E  E  E  E  E  E   E   E   E   E   E   E
-----------------------------------------------------|
-----------------------------------------------------|
--9--9--9--------------------11--11--11--12--12--11--|
-----------5--5--5--7--7--7--------------------------|
-----------------------------------------------------|

-----------------------------------|-----------------------------------|
-----------------------------------|-----------------------------------|
-----------------------------------|-----------------------------------|
--2------0------2------0------3----|--2------0------2------0------3----|
-----------------------------------|-----------------------------------|

  S S E  E  E  E  S S E  E  E  E  S S S S Q
-----------------------------------------------|
--4-4-4--4--------4-4-4--4---------------------|
-----------------------------------------------|
------------2--2------------2--2--0-0-0-0-3----|
-----------------------------------------------|

  S S E  E  E  E  S S E  E  E  E  S S S S Q
-----------------------------------------------|
--4-4-4--4--------4-4-4--4---------------------|
-----------------------------------------------|
------------2--2------------2--2--0-0-0-0-3----|
-----------------------------------------------|

  E  E  E  E  E  E  E  E  E  E  E  E  E  E  S S E  S S E  S S E
--------6-----------6--------------------------------------------|
-----------------------------------------------------------------|
--4--4-----4--4--4-----4--4--4--4--4--4--4--4-4-4--4-4-4--4-4-4--|
-----------------------------------------------------------------|
-----------------------------------------------------------------|

  E  E  E  E  E  E  E  E  E  E  E  E  E  E  S S E  S S E
--------6-----------6-------------------------------------|
----------------------------------------------------------|
--4--4-----4--4--4-----4--4--4--4--4--4--4--4-4-4--4-4-4--|
----------------------------------------------------------|
----------------------------------------------------------|

  E  E  E  E  E  E  E  E  E  E  E  E  E  E
--------------------------------------------|
--------------------------------------------|
--------7--------------7--------------7-----|
--0--0-----0--0--0--0-----0--0--0--0-----0--|
--------------------------------------------|

  E  E  E  E  E  E  E  E  E  S S E  S S E  S S E
--------------------------------------------------|
--------------------------------------------------|
-----------------4-----3--2-----------------------|
--0--0--0--0--0-----0--------0-0-0--0-0-0--0-0-0--|
--------------------------------------------------|

  E   E   E  E   E   E  E   E   E   E  E   E   E   E
---------11---------11---------11-------------11------|
-----11---------11---------11------11-----11------11--|
--9----------9----------9--------------9--------------|
------------------------------------------------------|
------------------------------------------------------|

  E   E   E  E   E   E  E   E   E   E  E   E   E   E
---------11---------11---------11-------------11------|
-----11---------11---------11------11-----11------11--|
--9----------9----------9--------------9--------------|
------------------------------------------------------|
------------------------------------------------------|

  E  E   E  E  E  E   E   E   E   E  E   E   E
--------11--------9----------11---------11------|
-----9---------9---------11------11---------11--|
--7---------7--------12--------------9----------|
------------------------------------------------|
------------------------------------------------|

   E   E   E  E   E   E   E   E   E   E  E  E  E  E
----------11---------11----------11------------9-----|
------11---------11----------11------11-----9-----9--|
--------------9----------12--------------7-----------|
--12-------------------------------------------------|
-----------------------------------------------------|

   E   E   E  E   E   E   E   E   E   E  E  E  E
----------11---------11----------11---------------|
------11---------11----------11------11-----9-----|
--------------9----------12--------------7-----7--|
--12----------------------------------------------|
--------------------------------------------------|

  E  E  E  E  E  E  E  H        E  Q.        W                W
--------4-----4-----4---------------------|------------------------------------|
-----2-----2-----4------------------------|------------------------------------|
--2---------------------------------------|-------------------L----------------|
-----------------------2--------L--0------|--3----------------L----------------|
------------------------------------------|------------------------------------|

  E  E  E  E  Q.     Q    E  S S E  E  E     Q    Q    E   Q    Q    E  E  E
------------------------------------------|------------6h--7------------7--9--|
------------------------------------4--5--|-----------------------------------|
-----------5--7---------------------------|-----------------------------------|
--0--0--0------------0----0--0-0-0--------|--0----0-------------0----0--------|
------------------------------------------|-----------------------------------|

  E  E  E  E  Q.     Q    E  S S E  E  E     Q    Q    E   Q    Q    E  E  E
------------------------------------------|------------6h--7------------7--9--|
------------------------------------4--5--|-----------------------------------|
-----------5--7---------------------------|-----------------------------------|
--0--0--0------------0----0--0-0-0--------|--0----0-------------0----0--------|
------------------------------------------|-----------------------------------|

  E  E  E  E  Q.     Q    E  S S E  E  E     Q    Q    E   Q    Q    E  E  E
------------------------------------------|------------6h--7------------7--9--|
------------------------------------4--5--|-----------------------------------|
-----------5--7---------------------------|-----------------------------------|
--0--0--0------------0----0--0-0-0--------|--0----0-------------0----0--------|
------------------------------------------|-----------------------------------|

  E  E  E  E  Q.     Q    E  S S E  E  E     Q    Q    E   Q    Q    E  E  E
------------------------------------------|------------6h--7------------7--9--|
------------------------------------4--5--|-----------------------------------|
-----------5--7---------------------------|-----------------------------------|
--0--0--0------------0----0--0-0-0--------|--0----0-------------0----0--------|
------------------------------------------|-----------------------------------|

  E  E  E  E  Q.     Q    E  S S E  E  E     Q    Q    E   Q    Q    E  E  E
------------------------------------------|------------6h--7------------7--9--|
------------------------------------4--5--|-----------------------------------|
-----------5--7---------------------------|-----------------------------------|
--0--0--0------------0----0--0-0-0--------|--0----0-------------0----0--------|
------------------------------------------|-----------------------------------|

  E  E  E  E  Q.     Q    E  S S E  E  E     Q    Q    E   Q    Q    E  E  E
------------------------------------------|------------6h--7------------7--9--|
------------------------------------4--5--|-----------------------------------|
-----------5--7---------------------------|-----------------------------------|
--0--0--0------------0----0--0-0-0--------|--0----0-------------0----0--------|
------------------------------------------|-----------------------------------|

  E  E  E  E  Q.     Q    E  S S E  E  E     Q    Q    E   Q    Q    E  E  E
------------------------------------------|------------6h--7------------7--9--|
------------------------------------4--5--|-----------------------------------|
-----------5--7---------------------------|-----------------------------------|
--0--0--0------------0----0--0-0-0--------|--0----0-------------0----0--------|
------------------------------------------|-----------------------------------|

  E  E  E  E  Q.     Q    E  S S E  E  E     Q    Q    E   Q    Q    E  E  E
------------------------------------------|------------6h--7------------7--9--|
------------------------------------4--5--|-----------------------------------|
-----------5--7---------------------------|-----------------------------------|
--0--0--0------------0----0--0-0-0--------|--0----0-------------0----0--------|
------------------------------------------|-----------------------------------|

  E  E  E  E  Q.     Q    E  S S E  E  E     Q    Q    E   Q    Q    E  E  E
------------------------------------------|------------6h--7------------7--9--|
------------------------------------4--5--|-----------------------------------|
-----------5--7---------------------------|-----------------------------------|
--0--0--0------------0----0--0-0-0--------|--0----0-------------0----0--------|
------------------------------------------|-----------------------------------|

  E  E  E  E  Q.     Q    E  S S E  E  E     Q    Q    E   Q    Q    E  E  E
------------------------------------------|------------6h--7------------7--9--|
------------------------------------4--5--|-----------------------------------|
-----------5--7---------------------------|-----------------------------------|
--0--0--0------------0----0--0-0-0--------|--0----0-------------0----0--------|
------------------------------------------|-----------------------------------|

  E  E  E  E  Q.     Q    E  S S E  E  E     Q    Q    E   Q    Q    E  E  E
------------------------------------------|------------6h--7------------7--9--|
------------------------------------4--5--|-----------------------------------|
-----------5--7---------------------------|-----------------------------------|
--0--0--0------------0----0--0-0-0--------|--0----0-------------0----0--------|
------------------------------------------|-----------------------------------|

  E  E  E  E  Q.     Q    E  S S E  E  E     Q    Q    E   Q    Q    E  E  E
------------------------------------------|------------6h--7------------7--9--|
------------------------------------4--5--|-----------------------------------|
-----------5--7---------------------------|-----------------------------------|
--0--0--0------------0----0--0-0-0--------|--0----0-------------0----0--------|
------------------------------------------|-----------------------------------|

  E  E  E  E  Q.     Q    E  S S E  E  E     Q    Q    E   Q    Q    E  E  E
------------------------------------------|------------6h--7------------7--9--|
------------------------------------4--5--|-----------------------------------|
-----------5--7---------------------------|-----------------------------------|
--0--0--0------------0----0--0-0-0--------|--0----0-------------0----0--------|
------------------------------------------|-----------------------------------|

  E  E  E  E  Q.     Q    E  S S E  E  E     Q    Q    E   Q    Q    E  E  E
------------------------------------------|------------6h--7------------7--9--|
------------------------------------4--5--|-----------------------------------|
-----------5--7---------------------------|-----------------------------------|
--0--0--0------------0----0--0-0-0--------|--0----0-------------0----0--------|
------------------------------------------|-----------------------------------|

  E  E  E  E  Q.     Q    E  S S E  E  E     Q    Q    E   Q    Q    E  E  E
------------------------------------------|------------6h--7------------7--9--|
------------------------------------4--5--|-----------------------------------|
-----------5--7---------------------------|-----------------------------------|
--0--0--0------------0----0--0-0-0--------|--0----0-------------0----0--------|
------------------------------------------|-----------------------------------|

  E  E  E  E  Q.     Q    E  S S E  E  E     Q    Q    E   Q    Q    E  E  E
------------------------------------------|------------6h--7------------7--9--|
------------------------------------4--5--|-----------------------------------|
-----------5--7---------------------------|-----------------------------------|
--0--0--0------------0----0--0-0-0--------|--0----0-------------0----0--------|
------------------------------------------|-----------------------------------|

  W.                  Q    Q.     E  E  E  E  E  E  E     W.
-------------------|-----------------------------------|-------------------|
-------------------|-----------------------------------|-------------------|
--0----------------|--2----2------2--2--2--2--2--2--2--|-------------------|
-------------------|-----------------------------------|--0----------------|
-------------------|-----------------------------------|-------------------|

  W.                  Q    Q    Q    Q    Q    Q
-------------------|-------2---------2---------2----|
-------------------|--------------------------------|
-------------------|--0---------0---------0---------|
--L----------------|--------------------------------|
-------------------|--------------------------------|

  Q    Q    Q    Q    Q    Q       E  E  Q    E  E  E  E  E  E  E
-------4---------4---------4----|----------------------------------|
--------------------------------|--2-----2-------0--2--4--5--4--0--|
--2---------2---------2---------|-------------2--------------------|
--------------------------------|----------------------------------|
--------------------------------|----------------------------------|

  E  E  Q    E  E  E  E  E  E  E  E     W.                  W.
-------------------------------------|-------------------|-------------------|
--2-----2-------0--2--4--5--4--2--0--|-------------------|-------------------|
-------------2-----------------------|--0----------------|--2----------------|
-------------------------------------|-------------------|-------------------|
-------------------------------------|-------------------|-------------------|

  E  E  Q    E  E  E  E  E  E  E     E  E  Q    E  E  E  E  E  E  E  E
----------------------------------|-------------------------------------|
--2-----2-------0--2--4--5--4--0--|--2-----2-------0--2--4--5--4--2--0--|
-------------2--------------------|-------------2-----------------------|
----------------------------------|-------------------------------------|
----------------------------------|-------------------------------------|

  W.                  H.           E  E  E  Q.
-------------------|-------------------------------|
-------------------|-------------------------------|
--0----------------|--2---------------------2------|
-------------------|---------------2--2--2---------|
-------------------|-------------------------------|

  E  E  E  E  Q    E  E  Q    E  E  Q       E  E  E  E  E  E  E  E  E  E  Q
-----------------------------------------|-------------------------------------|
-----------------------------------------|-------------------------------------|
-----------------------------------------|-------------------------------------|
--0--0--0--7-------0--0-------0--0--6----|--0--0--0--0--7-----0--0-----0--1----|
-----------------------------------------|-------------------------------------|

  E  E  E  E  Q    E  E  Q    E  E  Q       E  E  E  E  E  E  E  E  E  E  Q
-----------------------------------------|-------------------------------------|
-----------------------------------------|-------------------------------------|
-----------------------------------------|-------------------------------------|
--0--0--0--7-------0--0-------0--0--6----|--0--0--0--0--7-----0--0-----0--1----|
-----------------------------------------|-------------------------------------|

  E  E  E  E  Q    E  E  Q    E  E  Q       E  E  E  E  E  E  E  E  E  E  Q
-----------------------------------------|-------------------------------------|
-----------------------------------------|-------------------------------------|
-----------------------------------------|-------------------------------------|
--0--0--0--7-------0--0-------0--0--6----|--0--0--0--0--7-----0--0-----0--1----|
-----------------------------------------|-------------------------------------|

  E  E  E  E  Q    E  E  Q    E  E  Q       E  E  E  E  E  E  E  E  E  E  Q
-----------------------------------------|-------------------------------------|
-----------------------------------------|-------------------------------------|
-----------------------------------------|-------------------------------------|
--0--0--0--7-------0--0-------0--0--6----|--0--0--0--0--7-----0--0-----0--1----|
-----------------------------------------|-------------------------------------|

  E  E  E  E  Q    E  E  Q    E  E  E  E
------------------------------------------|
------------------------------------------|
------------------------------------------|
--0--0--0--7-------0--0-------0--0--6--6--|
------------------------------------------|

  E  E  E  E  E  E  E  E  E  E  Q
-------------------------------------|
-------------------------------------|
-------------------------------------|
--0--0--0--0--7-----0--0-----0--1----|
-------------------------------------|

  E  E  E  E  Q    E  E  Q    E  E  E  E
------------------------------------------|
------------------------------------------|
------------------------------------------|
--0--0--0--7-------0--0-------0--0--7--0--|
------------------------------------------|

  E  E  E  E  E  E  E  E  E  E  Q
-------------------------------------|
-------------------------------------|
-------------------------------------|
--0--0--0--0--7-----0--0-----0--1----|
-------------------------------------|

  E  E  E  E  E  E  E  E  E  E  E  E  Q
-------------------------------------------|
-------------------------------------------|
-------------------------------------------|
--0--0--0--7-----0--0--3-----0--0--7--6----|
-------------------------------------------|

  E  E  E  E  E  S S E  S S S S S S Q
-----------------------------------------|
-----------------------------------------|
-----------------------------------------|
--0--0--0--7-----0-0----0-0-0-0-0-0-1----|
-----------------------------------------|

  E  E  E  E  E  S S E  S S E  S S E  S S Q
-----------------------------------------------|
-----------------------------------------------|
-----------------------------------------------|
--7--0--0--0-----0-0----0-0----0-0----0-0-6----|
-----------------------------------------------|

  E  E  E  E  E  S S E  S S E  S S Q
----------------------------------------|
----------------------------------------|
----------------------------------------|
--7--0--0--0-----0-0----0-0----0-0-1----|
----------------------------------------|

  S S E  E  E  E  S S E  E  E  E  S S E  E  E
-----------------------------------------------|
-----------------------------------------------|
-----------------------------------------------|
--0-0-0--0--7-----0-0-0--0--3-----0-0-0--6--6--|
-----------------------------------------------|

  E  E  E  E  E  E  E  E  S S E  S S E
----------------------------------------|
----------------------------------------|
-----5--4-----3--2----------------------|
--0--------0--------0--1--0-0-0--0-0-0--|
----------------------------------------|

  S S E  E  E  E  S S S S E  E  S S S S E  E  E
-------------------------------------------------|
-------------------------------------------------|
-------------------------------------------------|
--0-0-0--0--7-----0-0-0-0-0--3--0-0-0-3-0--6--6--|
-------------------------------------------------|

  E  E  E  E  E  E  E  E  S S E  S S E
----------------------------------------|
----------------------------------------|
-----5--4-----3--2----------------------|
--0--------0--------0--1--0-0-0--0-0-0--|
----------------------------------------|

  S S E  E  E  E  S S E  E  E  E  S S S S Q
-----------------------------------------------|
--4-4-4--4--------4-4-4--4---------------------|
-----------------------------------------------|
------------2--2------------2--2--0-0-0-0-3----|
-----------------------------------------------|

  S S E  E  E  E  S S E  E  E  E  S S S S Q
-----------------------------------------------|
--4-4-4--4--------4-4-4--4---------------------|
-----------------------------------------------|
------------2--2------------2--2--0-0-0-0-3----|
-----------------------------------------------|

  S S E  E  E  E  S S E  E  E  E  S S S S Q
-----------------------------------------------|
--4-4-4--4--------4-4-4--4---------------------|
-----------------------------------------------|
------------2--2------------2--2--0-0-0-0-3----|
-----------------------------------------------|

  S S E  E  E  E  S S E  E  E  E  S S S S Q       E  E  E  E  E  E  E  E
-----------------------------------------------|--------------------------|
--4-4-4--4--------4-4-4--4---------------------|--------4-----------4-----|
-----------------------------------------------|--------------------------|
------------2--2------------2--2--0-0-0-0-3----|--2--2-----2--2--2-----2--|
-----------------------------------------------|--------------------------|

  E  E  E  E  E  E  E  E     E  E  E  E  E  E  E  E
--------------------------|--------4-----------4-----|
--------4-----------4-----|--------------------------|
--------------------------|--2--2-----2--2--2-----2--|
--2--2-----2--2--2-----2--|--------------------------|
--------------------------|--------------------------|

  E  E  E  E  E  E  E  E     E  E  E  E  E  E  E  E
--------4-----------4-----|--------7-----------7-----|
--------------------------|--------------------------|
--2--2-----2--2--2-----2--|--5--5-----5--5--5-----5--|
--------------------------|--------------------------|
--------------------------|--------------------------|

  E  E  E  E  E  E  E  E     E  E  E  E  E  E  E  E
--------7-----------7-----|--------9-----------9-----|
--------------------------|--------------------------|
--5--5-----5--5--5-----5--|--7--7-----7--7--7-----7--|
--------------------------|--------------------------|
--------------------------|--------------------------|

  E  E  E  E  E  E  E  E     E  E  E  E  E  E  E  E
--------------------------|--------------------------|
--------------------------|--------4-----------4-----|
--9--9-----9-----9--9-----|--------------------------|
--------------------------|--2--2-----2--2--2-----2--|
--------------------------|--------------------------|

  E  E  E  E  E  E  E  E     E  E  E  E  E  E  E  E
--------------------------|--------------------------|
--------4-----------4-----|--------4-----------4-----|
--------------------------|--------------------------|
--2--2-----2--2--2-----2--|--2--2-----2--2--2-----2--|
--------------------------|--------------------------|

  E  E  E  E  E  E  E  E     E  E  E  E  E  E  E  E
--------4-----------4-----|--------7-----------7-----|
--------------------------|--------------------------|
--2--2-----2--2--2-----2--|--5--5-----5--5--5-----5--|
--------------------------|--------------------------|
--------------------------|--------------------------|

  E  E  E  E  E  E  E  E     E  E  E  E  E  E  E  E
--------7-----------7-----|--------9-----------9-----|
--------------------------|--------------------------|
--5--5-----5--5--5-----5--|--7--7-----7--7--7-----7--|
--------------------------|--------------------------|
--------------------------|--------------------------|

  E  E  E  E  E  E  E  E     Q.     Q.     Q.     Q.     Q
--------9-----------9-----|-----------------------------------|
--------------------------|-----------------------------------|
--7--7-----7--7--7-----7--|-----------------------------------|
--------------------------|--2------0------2------0------3----|
--------------------------|-----------------------------------|

  Q.     Q.     Q.     Q.     Q       Q    W.
-----------------------------------|------------------------|
-----------------------------------|------------------------|
-----------------------------------|------------------------|
--2------0------2------0------3----|--2---------------------|
-----------------------------------|------------------------|

                                          H        E  Q.
-------------------|-------------------|---------------------|
-------------------|-------------------|---------------------|
-------------------|-------------------|---------------------|
-------------------|-------------------|--2--------L--0------|
-------------------|-------------------|---------------------|

  W                   Q.     H        E     H        E  Q.
-------------------|---------------------|---------------------|
-------------------|---------------------|---------------------|
-------------------|---------------------|---------------------|
--3----------------|--2------0--------0--|--L--------L--3------|
-------------------|---------------------|---------------------|

  Q.        H        S  S    Q.     H        E     Q    E  E  H
---------9g11--------9-11-|--9------6--------L--|----------------------|
--------------------------|---------------------|----------------------|
--4-----------------------|---------------------|----------2--L--------|
--------------------------|---------------------|--2-------------------|
--------------------------|---------------------|----------------------|

-------------------|---------------------|-------------------|
-------------------|---------------------|-------------------|
--L----------------|--0------0------4----|--L----------------|
-------------------|---------------------|-------------------|
-------------------|---------------------|-------------------|

  H        E  Q.     H           H        E  Q.     H        Q.
------------------------------|-------------------------------------|
------------------------------|-------------------------------------|
--2--------L--4------0--------|--------------2----------------------|
------------------------------|--4--------L---------2--------0------|
------------------------------|-------------------------------------|

-------------------|-------------------|-------------------|-------------------|
-------------------|-------------------|-------------------|-------------------|
-------------------|-------------------|-------------------|-------------------|
--0----------------|--0----------------|--0----------------|--0----------------|
-------------------|-------------------|-------------------|-------------------|

  W                   W                   W                   W
-------------------|-------------------|-------------------|-------------------|
-------------------|-------------------|-------------------|-------------------|
-------------------|-------------------|-------------------|-------------------|
--0----------------|-------------------|--2----------------|--L----------------|
-------------------|-------------------|-------------------|-------------------|

  W                   W                   W                   W
-------------------|-------------------|-------------------|-------------------|
-------------------|-------------------|-------------------|-------------------|
-------------------|-------------------|--2----------------|--L----------------|
--2----------------|--L----------------|-------------------|-------------------|
-------------------|-------------------|-------------------|-------------------|

  W                   W                   W                   W
-------------------|-------------------|-------------------|-------------------|
-------------------|-------------------|-------------------|-------------------|
--2----------------|--L----------------|-------------------|-------------------|
-------------------|-------------------|-------------------|-------------------|
-------------------|-------------------|--3----------------|--L----------------|

  W                   W                   W                   W
-------------------|-------------------|-------------------|-------------------|
-------------------|-------------------|--2----------------|--L----------------|
-------------------|-------------------|-------------------|-------------------|
-------------------|-------------------|-------------------|-------------------|
--3----------------|--L----------------|-------------------|-------------------|

  W                   W                   W                   W
-------------------|-------------------|-------------------|-------------------|
--2----------------|--L----------------|-------------------|-------------------|
-------------------|-------------------|-------------------|-------------------|
-------------------|-------------------|--2----------------|--L----------------|
-------------------|-------------------|-------------------|-------------------|

  W                   W                   W                   W
-------------------|-------------------|-------------------|-------------------|
-------------------|-------------------|-------------------|-------------------|
-------------------|-------------------|--2----------------|--L----------------|
--2----------------|--L----------------|-------------------|-------------------|
-------------------|-------------------|-------------------|-------------------|

  W                   W                   W                   W
-------------------|-------------------|-------------------|-------------------|
-------------------|-------------------|-------------------|-------------------|
--2----------------|--L----------------|-------------------|-------------------|
-------------------|-------------------|-------------------|-------------------|
-------------------|-------------------|--3----------------|--L----------------|

  W                   W                   E  E  E  E  E  E  E  E
-------------------|-------------------|--------------------------|
-------------------|-------------------|--------------------------|
-------------------|-------------------|-----------------------7--|
-------------------|-------------------|--7-----7--7-----5--------|
--3----------------|--L----------------|--------------------------|

  E  E  E  E  E  E  E  E     Q.     Q.     Q       E  H.           E
--------------------------|---------------------|---------------------|
--------------------------|---------------------|---------------------|
-----7--------------------|---------------------|---------------------|
-----------9--9-----9-----|--2------0------2----|--L--0------------L--|
--------------------------|---------------------|---------------------|

  E  E  E  E  E  E  E  E     E  E  E  E  E  E  E  E
-----------1--1--1--2--2--|--2-----2--2-----------1--|
--4--4--4-----------------|--------------4--4--4-----|
--------------------------|-----4--------------------|
--------------------------|--------------------------|
--------------------------|--------------------------|

  E  E  E  E  E  E  E  E     E  E  E  E  E  E  E  E
--1--1--2--2--2-----2--2--|-----------1--1--1--2--2--|
--------------------------|--4--4--4-----------------|
-----------------4--------|--------------------------|
--------------------------|--------------------------|
--------------------------|--------------------------|

  E  E  E  E  E  E  E  E     E  E  E  E  E  E  E  E
--1--1--1--2--2--4-----1--|--1--2--1-----1--1--1--2--|
--------------------2-----|-----------2--------------|
--------------------------|--------------------------|
--------------------------|--------------------------|
--------------------------|--------------------------|

  E  E  E  E  E  E  E  E     E  E  E  E  E  E  E  E
--2--4-----1--1--2--1-----|--1--1--1--2--2--4-----1--|
--------2--------------2--|--------------------2-----|
--------------------------|--------------------------|
--------------------------|--------------------------|
--------------------------|--------------------------|

  E  E  E  E  E  E  E  E     E  E  E  E  E  E  E  E
--4--4--4--6--6--6--7--7--|--7--4--4--7--4--4--4--6--|
--------------------------|--------------------------|
--------------------------|--------------------------|
--------------------------|--------------------------|
--------------------------|--------------------------|

  E  E  E  E  E  E  E  E     E  E  E  E  E  E  E  E     Q.      Q     Q    E
--6--6--7--7--7--4--4--7--|--4--4--4--6--6--6--7--7--|--9------11----13-------|
--------------------------|--------------------------|---------------------9--|
--------------------------|--------------------------|------------------------|
--------------------------|--------------------------|------------------------|
--------------------------|--------------------------|------------------------|

  E  E  E  E  Q.      E      E   Q    E  E  E  Q       Q.      Q     Q    E
--9-----9--L--9------11--|---L--13-------9-----9----|--9------11----13-------|
-----9-------------------|------------9-----9-------|---------------------9--|
-------------------------|--------------------------|------------------------|
-------------------------|--------------------------|------------------------|
-------------------------|--------------------------|------------------------|

   Q    E   Q    E   Q       Q.     E   Q    E   E     E  E   Q    Q.     E
--11-------13-------14----|------------11-------13--|--L-----14--------------|
--------------------------|-------------------------|------------------------|
--------------------------|-------------------------|--L---------------------|
--------------------------|-------------------------|------------------------|
--------------------------|-------------------------|------------------------|

   Q    E   Q    E   Q       Q.     Q.     Q       E  Q.     H
--11-------13-------14----|---------------------|---------------------|
--------------------------|---------------------|---------------------|
--------------------------|---------------------|---------------------|
--------------------------|--2------2------2----|--L--2------2--------|
--------------------------|---------------------|---------------------|

  Q.     Q.     Q       W                   H.           Q
---------------------|-------------------|--------------------|
---------------------|-------------------|---------------2----|
---------------------|-------------------|--------------------|
--2------2------2----|--L----------------|--0-----------------|
---------------------|-------------------|--------------------|

-------------------|--------------------|-------------------|
--L----------------|--0------------0----|--L----------------|
-------------------|--------------------|-------------------|
-------------------|--------------------|-------------------|
-------------------|--------------------|-------------------|

  H.           Q       W                   H.           Q
--------------------|-------------------|--------------------|
---------------2----|--L----------------|--0------------0----|
--------------------|-------------------|--------------------|
--0-----------------|-------------------|--------------------|
--------------------|-------------------|--------------------|

-------------------|--------------------|-------------------|
--L----------------|--------------------|-------------------|
-------------------|--2------------2----|--L----------------|
-------------------|--------------------|-------------------|
-------------------|--------------------|-------------------|

  H.           Q       W                   H.           Q
--------------------|-------------------|--------------------|
--------------------|-------------------|--0------------0----|
--4------------4----|--L----------------|--------------------|
--------------------|-------------------|--------------------|
--------------------|-------------------|--------------------|

  W                   W                   W                   W
-------------------|-------------------|-------------------|-------------------|
--L----------------|--2----------------|--L----------------|--0----------------|
-------------------|-------------------|-------------------|-------------------|
-------------------|-------------------|-------------------|-------------------|
-------------------|-------------------|-------------------|-------------------|

  W                   W                   W                   W
-------------------|-------------------|-------------------|-------------------|
--L----------------|--2----------------|--L----------------|--0----------------|
-------------------|-------------------|-------------------|-------------------|
-------------------|-------------------|-------------------|-------------------|
-------------------|-------------------|-------------------|-------------------|

  W                   E  E  Q    E  E  E  E  E  E  E  E
-------------------|-------------------------------------|
--L----------------|--2-----2-------0--2--4--5--4--2--0--|
-------------------|-------------2-----------------------|
-------------------|-------------------------------------|
-------------------|-------------------------------------|

  E  E  Q    E  E  E  E  E  E  E  E     E  E  Q    E  E  E  E  E  E  E  E
-------------------------------------|-------------------------------------|
--2-----2-------0--2--4--5--4--2--0--|--2-----2-------0--2--4--5--4--2--0--|
-------------2-----------------------|-------------2-----------------------|
-------------------------------------|-------------------------------------|
-------------------------------------|-------------------------------------|

  E  E  Q    E  E  E  E  E  E  E  E     E  E  Q    E  E  E  E
-------------------------------------|-------------------------|
--2-----2-------0--2--4--5--4--2--0--|--2-----2-------0--2--4--|
-------------2-----------------------|-------------2-----------|
-------------------------------------|-------------------------|
-------------------------------------|-------------------------|

  E  E  Q    E  E     E  E  E  E  E  E  E  E     E  E  Q    E  E
-------------------|-----------7--------7-----|-------------------|
--2-----2-------0--|--2--4--5-----5--4-----4--|--2-----2-------0--|
-------------2-----|--------------------------|-------------2-----|
-------------------|--------------------------|-------------------|
-------------------|--------------------------|-------------------|

  E  E  E  E  E  E     E  E  E  E  E  E     E  E  E  E  E  E
--------------------|--------------------|--------------------|
--2--4--5-----4-----|--2--0-----------0--|--2-----2--0--------|
-----------2-----2--|--------2--0--2-----|--------------2-----|
--------------------|--------------------|-----------------3--|
--------------------|--------------------|--------------------|

  E  E  E  E  E  E  E  E  E  E  E  E  E     E  S S E  E  S S E  E  S S E
--------------2--------------------------|----------------------7--7-7-7--|
-----2-----0-----4--0-----2--0--2--0-----|--5--5-5-5--4--4-4-4------------|
--0-----4--------------2--------------2--|--------------------------------|
-----------------------------------------|--------------------------------|
-----------------------------------------|--------------------------------|

  E  E  E  E  Q.      H.
--4--------------------------------|---------------|---------------|
-----5-----------------------------|---------------|---------------|
--------7--5--7~-------------------|---------------|---------------|
-----------------------------------|---------------|---------------|
-----------------------------------|---------------|---------------|

---------------|---------------|---------------|---------------|---------------|
---------------|---------------|---------------|---------------|---------------|
---------------|---------------|---------------|---------------|---------------|
---------------|---------------|---------------|---------------|---------------|
---------------|---------------|---------------|---------------|---------------|

                  E  E  E  E  E     E  E  E  E  E     E  E  E  E  E
---------------|--------------7--|--------------7--|--------------7--|
---------------|--------7--9-----|--------7--9-----|--------7--9-----|
---------------|--7--L-----------|--7--L-----------|--7--L-----------|
---------------|-----------------|-----------------|-----------------|
---------------|-----------------|-----------------|-----------------|

  Q    E   E     Q     E  E   E  E     E  E   E  E   E  E
--------------|---------------------|----------------------|
-------9--10--|-----------9--10-----|------------9--10-----|
--7-----------|-------10------------|--------10---------3--|
--------------|--8---------------8--|--L-------------------|
--------------|---------------------|----------------------|

  E  E  E  E  E  E     E  E  Q       E  E  E  E  E     E  E  E  E  E
--------------------|-------------|--------------7--|--------------7--|
--5-----0--2-----0--|-------------|--------7--9-----|--------7--9-----|
-----3--------2-----|--3--0--2----|--7--L-----------|--7--L-----------|
--------------------|-------------|-----------------|-----------------|
--------------------|-------------|-----------------|-----------------|

  E  E  E  E  E     Q    E   E     Q     E  E   E  E     E  E   E  E   E  E
--------------7--|--------------|---------------------|----------------------|
--------7--9-----|-------9--10--|-----------9--10-----|------------9--10-----|
--7--L-----------|--7-----------|-------10------------|--------10---------3--|
-----------------|--------------|--8---------------8--|--L-------------------|
-----------------|--------------|---------------------|----------------------|

  E  E  E  E  E  E     E  E  Q       E  E  E  E  E     E  E  E  E  E
--------------------|-------------|--------------7--|--------------7--|
--5-----0--2-----0--|-------------|--------7--9-----|--------7--9-----|
-----3--------2-----|--3--0--2----|--7--L-----------|--7--L-----------|
--------------------|-------------|-----------------|-----------------|
--------------------|-------------|-----------------|-----------------|

  E  E  E  E  E     Q    E   E     Q     E  E   E  E  E  E   E  E   E  E
--------------7--|--------------|-----------------------------------------|
--------7--9-----|-------9--10--|-----------9--10---------------9--10-----|
--7--L-----------|--7-----------|-------10------------------10---------3--|
-----------------|--------------|--8---------------8--L-------------------|
-----------------|--------------|-----------------------------------------|

  E  E  E  E  E  E  E  E  Q    Q       Q    E  E  E  E  Q    E  E  E  E
------------------------------------|------------------------------------|
--5-----0--2-----0------------------|------------------------------------|
-----3--------2-----3--0--2----0----|------------------------------------|
------------------------------------|--3----3--3--3--3--5----5--5--5--5--|
------------------------------------|------------------------------------|

  Q    E  E  E  E  Q    E  E  E  E     Q    E  E  E  E  Q    E  E  E  E
------------------------------------|------------------------------------|
------------------------------------|------------------------------------|
--7----7--7--7--7-------------------|------------------------------------|
-------------------5----5--5--5--5--|--3----3--3--3--3--5----5--5--5--5--|
------------------------------------|------------------------------------|

  E  E  E  E  E  E  E  E  E  E  E  E     Q    E  E  E  E  Q    E  E  E  E
--------------------------------------|------------------------------------|
--------------------------------------|------------------------------------|
--7--------5-----5--7--------5-----5--|------------------------------------|
-----5--7-----7--------5--7-----7-----|--3----3--3--3--3--5----5--5--5--5--|
--------------------------------------|------------------------------------|

  Q    E  E  E  E  Q    E  E  E  E     Q    E  E  E  E  Q    E  E  E  E
------------------------------------|------------------------------------|
------------------------------------|------------------------------------|
--7----7--7--7--7-------------------|------------------------------------|
-------------------5----5--5--5--5--|--3----3--3--3--3--5----5--5--5--5--|
------------------------------------|------------------------------------|

  E  E  E  E  E     E  E  E  E  E     E  E  E  E  E     Q    E   E
--------------7--|--------------7--|--------------7--|--------------|
--------7--9-----|--------7--9-----|--------7--9-----|-------9--10--|
--7--L-----------|--7--L-----------|--7--L-----------|--7-----------|
-----------------|-----------------|-----------------|--------------|
-----------------|-----------------|-----------------|--------------|

  Q     E  E   E  E     E  E   E  E   E  E     E  E  E  E  E  E     E  E  Q
---------------------|----------------------|--------------------|-------------|
-----------9--10-----|------------9--10-----|--5-----0--2-----0--|-------------|
-------10------------|--------10---------3--|-----3--------2-----|--3--0--2----|
--8---------------8--|--L-------------------|--------------------|-------------|
---------------------|----------------------|--------------------|-------------|

  E  E  E  E  E     E  E  E  E  E     E  E  E  E  E     Q    E   E
--------------7--|--------------7--|--------------7--|--------------|
--------7--9-----|--------7--9-----|--------7--9-----|-------9--10--|
--7--L-----------|--7--L-----------|--7--L-----------|--7-----------|
-----------------|-----------------|-----------------|--------------|
-----------------|-----------------|-----------------|--------------|

  Q     E  E   E  E     E  E   E  E   E  E     E  E  E  E  E  E     E  E  Q
---------------------|----------------------|--------------------|-------------|
-----------9--10-----|------------9--10-----|--5-----0--2-----0--|-------------|
-------10------------|--------10---------3--|-----3--------2-----|--3--0--2----|
--8---------------8--|--L-------------------|--------------------|-------------|
---------------------|----------------------|--------------------|-------------|

----------------------------|----------------------------|
----------------------------|----------------------------|
----------------------------|--7-------------------------|
--3------------5------------|---------------5------------|
----------------------------|----------------------------|

----------------------------|----------------------------|
----------------------------|----------------------------|
----------------------------|--7------------7------------|
--3------------5------------|----------------------------|
----------------------------|----------------------------|

----------------------------|----------------------------|
----------------------------|----------------------------|
----------------------------|--7-------------------------|
--3------------5------------|---------------5------------|
----------------------------|----------------------------|

  H.           H.              E  E  E  E  E  E  E  E  E  E  E  E
----------------------------|--------------------------------------|
----------------------------|--------------------------------------|
----------------------------|--------------------------------------|
--3------------5------------|--0--0--0--0--0--0--0--0--0--0--0--0--|
----------------------------|--------------------------------------|

  E  E  E  E  E  E  E  E  E     E  E  E  E  E  E  E  E  E  E  E  E
-----------------------------|--------------------------------------|
-----------------------------|--------------------------------------|
-----------------------------|--3--3--3--3--3--3--3--3--3--3--3--3--|
--0--0--0--0--0--0--0--0--0--|--------------------------------------|
-----------------------------|--------------------------------------|

  E  E  E  E  E  E  E  E  E  E  E  E     E  E  E  E  E  E  E  E  E  E  E  E
--------------------------------------|--------------------------------------|
--------------------------------------|--------------------------------------|
--------------------------------------|--------------------------------------|
--3--3--3--3--3--3--5--5--5--5--5--5--|--0--0--0--0--0--0--0--0--0--0--0--0--|
--------------------------------------|--------------------------------------|

  E  E  E  E  E  E  E  E  E     E  E  E  E  E  E  E  E  E  E  E  E
-----------------------------|--------------------------------------|
-----------------------------|--------------------------------------|
-----------------------------|--3--3--3--3--3--3--3--3--3--3--3--3--|
--0--0--0--0--0--0--0--0--0--|--------------------------------------|
-----------------------------|--------------------------------------|

  E  E  E  E  E  E  E  E  E  E  E  E     W.                  W.
--------------------------------------|-------------------|-------------------|
--------------------------------------|-------------------|-------------------|
--------------------------------------|-------------------|-------------------|
--3--3--3--3--3--3--5--5--5--5--5--5--|--5----------------|--2----------------|
--------------------------------------|-------------------|-------------------|

-------------------|-------------------|-------------------|
-------------------|-------------------|-------------------|
-------------------|--3----------------|--3----------------|
--2----------------|-------------------|-------------------|
-------------------|-------------------|-------------------|

  Q    Q    Q    Q    H           W.                  W.
-------------------------------|-------------------|-------------------|
-------------------------------|-------------------|-------------------|
--2----2----2----2----2--------|-------------------|--5----------------|
-------------------------------|--0----------------|-------------------|
-------------------------------|-------------------|-------------------|

-------------------|-------------------|-------------------|-------------------|
-------------------|-------------------|-------------------|-------------------|
--0----------------|-------------------|-------------------|--3----------------|
-------------------|--2----------------|--2----------------|-------------------|
-------------------|-------------------|-------------------|-------------------|

  W.                  W.                  Q    E  E  E  H.            E
-------------------|-------------------|---------------------------------|
-------------------|-------------------|----------------5~------------L--|
--3----------------|--5----------------|-------------7-------------------|
-------------------|-------------------|--0----0--0----------------------|
-------------------|-------------------|---------------------------------|

  Q    E  E  E  E  E  E  E     E  E  E  E  E  E  E  E  E  E  E  E
----------------------------|--------------------------------------|
----------------5-----------|--------------------------------------|
-------------7-----7--7--7--|--------------------------------------|
--0----0--0-----------------|--8--8--8--8--8--8--8--8--8--8--8--8--|
----------------------------|--------------------------------------|

  E  E  E  E  E  E  E  E  E  E  E  E     Q    E  E  E  H.            E
--------------------------------------|---------------------------------|
--------------------------------------|----------------5~------------L--|
--------------------------------------|-------------7-------------------|
--3--3--3--3--3--3--5--5--5--2--2--2--|--0----0--0----------------------|
--------------------------------------|---------------------------------|

  Q    E  E  E  E  E  E  E     E  E  E  E  E  E  E  E  E  E  E  E
----------------------------|--------------------------------------|
----------------5-----------|--------------------------------------|
-------------7-----7--7--7--|--------------------------------------|
--0----0--0-----------------|--8--8--8--8--8--8--8--8--8--8--8--8--|
----------------------------|--------------------------------------|

  E  E  E  E  E  E  E  E  E  E  E  E     Q    E  E  E  H.            E
--------------------------------------|---------------------------------|
--------------------------------------|----------------5~------------L--|
--------------------------------------|-------------7-------------------|
--3--3--3--3--3--3--5--5--5--2--2--2--|--0----0--0----------------------|
--------------------------------------|---------------------------------|

  Q    E  E  E  E  E  E  E     E  E  E  E  E  E  E  E  E  E  E  E
----------------------------|--------------------------------------|
----------------5-----------|--------------------------------------|
-------------7-----7--7--7--|--------------------------------------|
--0----0--0-----------------|--8--8--8--8--8--8--8--8--8--8--8--8--|
----------------------------|--------------------------------------|

  E  E  E  E  E  E  E  E  E  E  E  E     Q    E  E  E  H.            E
--------------------------------------|---------------------------------|
--------------------------------------|----------------5~------------L--|
--------------------------------------|-------------7-------------------|
--3--3--3--3--3--3--5--5--5--2--2--2--|--0----0--0----------------------|
--------------------------------------|---------------------------------|

  Q    E  E  E  E  E  E  E     E  E  E  E  E  E  E  E  E  E  E  E
----------------------------|--------------------------------------|
----------------5-----------|--------------------------------------|
-------------7-----7--7--7--|--------------------------------------|
--0----0--0-----------------|--8--8--8--8--8--8--8--8--8--8--8--8--|
----------------------------|--------------------------------------|

  E  E  E  E  E  E  E  E  E  E  E  E     Q    E  E  E  H.            E
--------------------------------------|---------------------------------|
--------------------------------------|----------------5~------------L--|
--------------------------------------|-------------7-------------------|
--3--3--3--3--3--3--5--5--5--2--2--2--|--0----0--0----------------------|
--------------------------------------|---------------------------------|

  Q    E  E  E  E  E  E  E     E  E  E  E  E  E  E  E  E  E  E  E
----------------------------|--------------------------------------|
----------------5-----------|--------------------------------------|
-------------7-----7--7--7--|--------------------------------------|
--0----0--0-----------------|--8--8--8--8--8--8--8--8--8--8--8--8--|
----------------------------|--------------------------------------|

  E  E  E  E  E  E  E  E  E  E  E  E     Q    E  E  E  H.            E
--------------------------------------|---------------------------------|
--------------------------------------|----------------5~------------L--|
--------------------------------------|-------------7-------------------|
--3--3--3--3--3--3--5--5--5--2--2--2--|--0----0--0----------------------|
--------------------------------------|---------------------------------|

  Q    E  E  E  E  E  E  E     E  E  E  E  E  E  E  E  E  E  E  E
----------------------------|--------------------------------------|
----------------5-----------|--------------------------------------|
-------------7-----7--7--7--|--------------------------------------|
--0----0--0-----------------|--8--8--8--8--8--8--8--8--8--8--8--8--|
----------------------------|--------------------------------------|

  E  E  E  E  E  E  E  E  E  E  E  E     Q    E  E  E  H.            E
--------------------------------------|---------------------------------|
--------
						
# Artist Title Tabdesignator