Dream Theater

Honor Thy Father Ver 2


							
tuning: C E A D G C
4/4

  q  q  q  q    q  q  S S S S S S S S   q  q  q  q    q  q  S S S S S S S S
|-------------|-----------------------|-------------|------------------------|
|-------------|-----------------------|-------------|------------------------|
|-------------|-----------------------|-------------|------------------------|
|-------------|-----------------------|-------------|------------------------|
|-------------|-----------------------|-------------|------------------------|
|-0--0--0--0--|-0--0--5-6-5-3-5-6-5-3-|-0--0--0--0--|-0--0--3-5-3-2-3-5-3-2--|

  q  q  q  q    q  q  S S S S S S S S
|-------------|-----------------------|
|-------------|-----------------------|
|-------------|-----------------------|
|-------------|-----------------------|
|-------------|-------4-6-4-3-4-6-4-3-|
|-0--0--0--0--|-0--0------------------|

  q  q  q  q    q  q   S  S  S S  S  S  S S
|-------------|-----------------------------|
|-------------|-----------------------------|
|-------------|-----------------------------|
|-------------|-----------------------------|
|-------------|-------10-11-10-8-10-11-10-8-|
|-0--0--0--0--|-0--0------------------------|

 6/8

  q  q  q    q  q  q    E E E E q    q  q  q
|----------|----------|------------|----------|
|----------|----------|------------|----------|
|----------|----------|------------|----------|
|----------|----------|------------|----------|
|----------|----------|------------|----------|
|-0--0--0--|-0--0--0--|-6-6-6-6-0--|-0--0--0--|

  q  q  E E   E E q  q    q  q  q    q  E E E E
|-----------|-----------|----------|------------|
|-----------|-----------|----------|------------|
|-----------|-----------|----------|------------|
|-----------|-----------|----------|------------|
|-----------|-----------|----------|----4-4-4-4-|
|-0--0--3-3-|-3-3-0--0--|-0--0--0--|-0----------|

                       3/8

  q  q  q    q  q  q    E E E
|----------|----------|-------|
|----------|----------|-------|
|----------|----------|-------|
|----------|----------|-------|
|----------|----------|-6-6-6-|
|-0--0--0--|-0--0--0--|-------|

 4/4

  E q  q  q  E   E q  q  E E E   E q  q  q  E   E q  q  E E E
|--------------|---------------|--------------|---------------|
|--------------|---------------|--------------|---------------|
|--------------|---------------|--------------|---------------|
|--------------|---------------|--------------|---------------|
|-6------------|---------------|--------------|---------------|
|---0--0--0--0-|---0--0--6-6-6-|-6-0--0--0--0-|---0--0--3-3-3-|

  E q  q  q  E   E q  q  E E E   E q  q  q  E   E q  q  E E E
|--------------|---------------|--------------|----------------|
|--------------|---------------|--------------|----------------|
|--------------|---------------|--------------|----------------|
|--------------|---------------|--------------|----------------|
|--------------|---------4-4-4-|-4------------|---------6-6-6--|
|-3-0--0--0--0-|---0--0--------|---0--0--0--0-|---0--0---------|

    E E E E E E E E   E E E E E E E E   E E E E E E E E   E E E E E E E E
||------------------|-----------------|-----------------|-----------------|
||o-----------------|-----------------|-----------------|-----------------|
||------------------|-----------------|-----------------|-----------------|
||------------------|-----------------|-----------------|-----------------|
||o-----------------|-----------------|-----------------|-----------------|
||--0-0-0-0-0-0-0-0-|-0-0-0-0-2-3-3-3-|-0-0-0-0-0-0-0-0-|-0-0-0-0-3-6-6-6-|

  E E E E E E E E   E E E E E E E E
|-----------------|-----------------|
|-----------------|-----------------|
|-----------------|-----------------|
|-----------------|-----------------|
|-----------------|-----------------|
|-0-0-0-0-0-0-0-0-|-0-0-0-0-2-3-3-3-|

  E E E E E E E   E   E  E  +E   E E E E E
|-------------------|------------------------||
|-------------------|-----------------------o||
|-------------------|-8------------5---------||
|---------------/10-|---10-(10)-6---6-4-----||
|-------------------|--------------------3--o||
|-0-0-0-0-0-0-0-----|------------------------||

    E E E E E E E E   E E E E E E E E   E E E E E E E E   E E E E E E E E
||------------------|-----------------|-----------------|------------------||
||o-----------------|-----------------|-----------------|-----------------o||
||------------------|-----------------|-----------------|------------------||
||------------------|-----------------|-----------------|------------------||
||o-8-6-8-------8-6-|-8-------------6-|-8-6-8-----------|-----------------o||
||--------0-3-0-----|---0-7-0-8-7-8---|-------0-3-0-8-7-|-8-0-3-0-7-5-7-8--||

  E E E E E E E E   E E E E E E E E   E E E E E E E E   E E E E E E E E
|-----------------|-----------------|-----------------|------------------|
|-----------------|-----------------|-----------------|------------------|
|-----------------|-----------------|-----------------|------------------|
|-----------------|-----------------|-----------------|------------------|
|-----------------|-----------------|-----------------|------------------|
|-0-0-0-0-0-0-0-0-|-0-0-0-0-2-3-3-3-|-0-0-0-0-0-0-0-0-|-0-0-0-0-3-6-6-6--|

  E E E E E E E E   E E E E E E E E
|-----------------|-----------------|
|-----------------|-----------------|
|-----------------|-----------------|
|-----------------|-----------------|
|-----------------|-----------------|
|-0-0-0-0-0-0-0-0-|-0-0-0-0-2-3-3-3-|

  E E E E E E E   E   E  E  +E   E E E E E
|-------------------|-----------------------|
|-------------------|-----------------------|
|-------------------|-8------------5--------|
|---------------/10-|---10-(10)-6---6-4----|
|-------------------|--------------------3--|
|-0-0-0-0-0-0-0-----|-----------------------|

    E E E E E E E E   E E E E E E E E   E E E E E E E E   E E E E E E E E
||------------------|-----------------|-----------------|------------------||
||o-----------------|-----------------|-----------------|-----------------o||
||------------------|-----------------|-----------------|------------------||
||------------------|-----------------|-----------------|------------------||
||o-8-6-8-------8-6-|-8-------------6-|-8-6-8-----------|-----------------o||
||--------0-3-0-----|---0-7-0-8-7-8---|-------0-3-0-8-7-|-8-0-3-0-7-5-7-8--||

                                           Verse 1
 7/4

   Q   E  E  E  E  E  E  E  E  E  E  Q       Q   E  E  E  E  E  E  E  E  E  E  Q
|---------------------------------------||----------------------------------------|
|-----12----10-12----13----12----10-12--||o-----12----10-12----13----12----10-12--|
|-10-----10-------10----10----10--------||--10-----10-------10----10----10--------|
|---------------------------------------||----------------------------------------|
|---------------------------------------||o---------------------------------------|
|---------------------------------------||----------------------------------------|

 8/4

   Q   E  E  E  E  E  E  E  E  E  E  E  E  E  E
|-----------------------------------------------|
|-----12----10-12----13----12----10-12----10-12-|
|-10-----10-------10----10----10-------10-------|
|-----------------------------------------------|
|-----------------------------------------------|
|-----------------------------------------------|

 7/4

   Q   E  E  E  E  E  E  E  E  E  E  Q
|---------------------------------------|
|-----12----10-12----13----12----10-12--|
|-10-----10-------10----10----10--------|
|---------------------------------------|
|---------------------------------------|
|---------------------------------------|

 8/4

   Q   E  E  E  E  E  E  E  E  E  E  E  E  E  E
|--------------------10---------------------------||
|-----12----10-12----------13----10-13----10-12--o||
|-10-----10-------10----10----10-------10---------||
|-------------------------------------------------||
|------------------------------------------------o||
|-------------------------------------------------||

    Q  E E E E E E E E E E E E E E   Q  E E E E E E E E E Q  E E E
||---------------------------------|--------------------------------||
||o--------------------------------|-------------------------------o||
||---------------------------------|--------------------------------||
||---------------------------------|--------------------------------||
||o--------------------------------|--------6-4---------8----------o||
||--0--7-0-8-7-0-5-0-7-0-2-0-3-0-5-|-0--7-0-----0-5-0-7---0--2-0-3--||

   Verse 2
   7/4                     8/4

    E E E H    E E E H      E E E H    E E E Q  E E Q   4x
||------------------------|-----------------------------||
||o-----------------------|----------------------------o||
||------------------------|-----------------------------||
||------------------------|-----------------------------||
||o-----------------------|----------------------------o||
||--0-0-0------0-0-0------|-0-0-0------0-0-0----0-0-----||

 Chorus
 7/4                       8/4

  H    E E E Q  E E E E E   H    E E E E +H     H
|-------------------------|--------------------------|
|-------------------------|--------------------------|
|--------6--------8-6-5---|--------6-----------------|
|------6---6----6-------6-|------6---6---------------|
|-4----------4------------|-4----------4-(4)----6----|
|-------------------------|--------------------------|

 7/4                     8/4

  Q  Q  Q  E Q  Q  Q  E   Q  Q  Q  E Q  Q  Q  Q  E
|-----------------------|---------------------------|
|-----------------------|---------------------------|
|-----------------------|---------------------------|
|-----------------------|---------------------------|
|-----------------------|---------------------------|
|-0--0--0--0-0--0--0--0-|-0--0--0--0-0--0--0--0--0--|

 7/4                       8/4

  H    E E E Q  E E E E E   H    E E E E +H     H
|-------------------------|--------------------------|
|-------------------------|--------------------------|
|--------6--------8-6-5---|--------6-----------------|
|------6---6----6-------6-|------6---6---------------|
|-4----------4------------|-4----------4-(4)----6----|
|-------------------------|--------------------------|

  Q.   Q.   Q  E Q.   E Q.
|-----------------------------|
|-----------------------------|
|--------------x-6------------|
|-6----8----5---------x-4-----|
|-----------------------------|
|-----------------------------|

   Bridge
    E Q  E Q  E E E E Q  E Q  E   E Q  E Q  E E E E Q  E E E E
||------------------------------|------------------------------|
||o-----------------------------|------------------------------|
||------------------------------|------------------------------|
||------------------------------|------------------------------|
||o-----------------------------|-------------------4----------|
||--0-7--0-6--0-3-2-0-5--0-2--3-|-0-7--0-6--0-3-2-0----2-3-2-3-|

  E Q  E Q  E E E E Q  E Q  E   E Q  E Q  E E E E Q  E E E E
|-----------------------------|--------------------------------||
|-----------------------------|-------------------------------o||
|-----------------------------|--------------------------------||
|-----------------------------|--------------------------------||
|-----------------------------|-------------------4-----------o||
|-0-7--0-6--0-3-2-0-5--0-2--3-|-0-7--0-6--0-3-2-0----2-3-2-3---||

   Interlude
   4/4

    E E E E E E E E   E E E E E E E E   E E E E E E E E   E E E E E E E E
||------------------|-----------------|-----------------|------------------|
||o-----------------|-----------------|-----------------|------------------|
||------------------|-----------------|-----------------|------------------|
||------------------|-----------------|-----------------|------------------|
||o-----------------|-----------------|-----------------|------------------|
||--0-0-0-0-0-0-0-0-|-0-0-0-0-2-3-3-3-|-0-0-0-0-0-0-0-0-|-0-0-0-0-3-6-6-6--|

  E E E E E E E E   E E E E E E E E
|-----------------|-----------------|
|-----------------|-----------------|
|-----------------|-----------------|
|-----------------|-----------------|
|-----------------|-----------------|
|-0-0-0-0-0-0-0-0-|-0-0-0-0-2-3-3-3-|

  E E E E E E E   E   E  E  +E   E E E E E
|-------------------|------------------------||
|-------------------|-----------------------o||
|-------------------|-8------------5---------||
|---------------/10-|---10-(10)-6---6-4-----||
|-------------------|--------------------3--o||
|-0-0-0-0-0-0-0-----|------------------------||

                    Verse 3
 7/4                                        8/4

  W                  E E E H    E E E H      E E E H    E E E Q  E E Q   4x
|----------------||------------------------|-----------------------------||
|----------------||o-----------------------|----------------------------o||
|----------------||------------------------|-----------------------------||
|----------------||------------------------|-----------------------------||
|----------------||o-----------------------|----------------------------o||
|----------------||--0-0-0------0-0-0------|-0-0-0------0-0-0----0-0-----||

    Q  E E E E E E E E E E E E E E   Q  E E E E E E E E E Q  E E E
||---------------------------------|--------------------------------||
||o--------------------------------|-------------------------------o||
||---------------------------------|--------------------------------||
||---------------------------------|--------------------------------||
||o--------------------------------|--------6-4---------8----------o||
||--0--7-0-8-7-0-5-0-7-0-2-0-3-0-5-|-0--7-0-----0-5-0-7---0--2-0-3--||

   Verse 4
   7/4                            8/4

     E E E E E E E E E E E E E E   E E E E E E E E E E E E E E E E
||-------------------------------|---------------------------------|
||o------------------------------|---------------------------------|
||-------------------------------|---------------------------------|
||-------------------------------|---------------------------------|
||o-/8-8-8-8-8-8-8-8-8-8-8-8-8-8-|-4-4-4-4-4-4-4-4-4-4-4-4-4-4-4-4-|
||-------------------------------|---------------------------------|

 7/4                           8/4

  E E E E E E E E E E E E E E   E E E E E E E E E E E E E E E E
|-----------------------------|-----------------------------------||
|-----------------------------|----------------------------------o||
|-----------------------------|-----------------------------------||
|-----------------------------|-----------------------------------||
|-6-6-6-6-6-6-6-6-6-6-6-6-6-6-|----------------------------------o||
|-----------------------------|-7-7-7-7-7-7-7-7-7-7-7-7-7-7-7-7---||

 Chorus
 7/4                            8/4

  E E E E E E E Q  E E E E S S   E E E E E E E Q  E E E S S S S S S S S
|------------------------------|----------------------------------------|
|------------------------------|----------------------------------------|
|---------3--------------3-----|---------8------------5-6-8-6-5---------|
|---6-5-6---5-6----6-5-6---5-6-|---6-5-6---5-6----6-8-----------6-8-6-5-|
|-4-------------4--------------|-4-------------4------------------------|
|------------------------------|----------------------------------------|

 7/4

  E  E E  E  E E  E Q   E E  E  E S  S
|--------------------------------------|
|--------------------------------------|
|--------------------------------------|
|---10-8-10-11-8-10----10-8-10-11-8-10-|
|-8-----------------8------------------|
|--------------------------------------|

 8/4

  E  E E  E  E E  E Q  E E E S S S S S S S S
|--------------------------------------------|
|--------------------------------------------|
|-----------12---------8-6-5-3-5-3-----------|
|---10-8-10----8-10----------------6-3-5-3---|
|-8-----------------8----------------------6-|
|--------------------------------------------|

 7/4

  E E E E E E E Q  E E E E S S
|------------------------------|
|------------------------------|
|---------3--------------3-----|
|---6-5-6---5-6----6-5-6---5-6-|
|-4-------------4--------------|
|------------------------------|

 8/4

  E E E E E E E Q  E E E S S S S S S S S   Q.   Q.   Q  E Q.   E Q.
|----------------------------------------|-----------------------------|
|----------------------------------------|-----------------------------|
|---------8------------------------------|--------------x-6------------|
|---6-5-6---5-6----6-5-------------------|-6----8----5---------x-4-----|
|-4-------------4------6-4-6-4-3---------|-----------------------------|
|--------------------------------3-5-3-2-|-----------------------------|

   Bridge
    E Q  E Q  E E E E Q  E Q  E   E Q  E Q  E E E E Q  E E E E
||------------------------------|------------------------------|
||o-----------------------------|------------------------------|
||------------------------------|------------------------------|
||------------------------------|------------------------------|
||o-----------------------------|-------------------4----------|
||--0-7--0-6--0-3-2-0-5--0-2--3-|-0-7--0-6--0-3-2-0----2-3-2-3-|

  E Q  E Q  E E E E Q  E Q  E   E Q  E Q  E E E E Q  E E E E
|-----------------------------|--------------------------------||
|-----------------------------|-------------------------------o||
|-----------------------------|--------------------------------||
|-----------------------------|--------------------------------||
|-----------------------------|-------------------4-----------o||
|-0-7--0-6--0-3-2-0-5--0-2--3-|-0-7--0-6--0-3-2-0----2-3-2-3---||

  H=90
 7/8             5/8          7/8             9/8

  E E E E E E E   E  E E E E   E E E E E E E   E E E E E E E E E
|---------------|------------|---------------|-------------------|
|---------------|------------|---------------|---------6-----8---|
|-------5-6-----|------8-----|-------5-6-----|---8-------6-----8-|
|-----8---------|---11-------|-----8---------|-6-----8-----4-----|
|---8-------8---|-8----------|---8-------8---|-----6-------------|
|-5-----------5-|--------0-3-|-5-----------5-|-------------------|

 7/8             5/8         4/4       GOOD LUCK!!!

  E E E E E E E   E E E E E   S S S  S S S S  S  S  S  S  S  S  S  S  S
|---------------|-----------|--------------------------------------------|
|---------------|-----------|--------------------------------------------|
|-------5-6-----|---6-8-----|-------------------------------11-10-11-13--|
|-----8---------|-----------|-------------------11-10-11-13--------------|
|---8-------8---|-8---------|----------9-8-9-11--------------------------|
|-5-----------5-|-------0-3-|-8-7-8-10-----------------------------------|

   S  S  S  S  S  S  S  S  S  S  S  S  S  S  S  S
|-------------13-12-13-15-------------15-13-15-17-|
|-13-12-13-15-------------15-13-15-17-------------|
|-------------------------------------------------|
|-------------------------------------------------|
|-------------------------------------------------|
|-------------------------------------------------|

   S S  S S  S S  S S  S S  S S  S S  S S    S S  S S  S S  S S  Q   +Q
|-----------------------------------------|--------------------------------|
|-17p0-16p0-13p0-16p0-13p0-12p0-13p0-12p0-|-10p0-12p0-13p0-10p0-12--(12)--|
|-----------------------------------------|--------------------------------|
|-----------------------------------------|--------------------------------|
|-----------------------------------------|--------------------------------|
|-----------------------------------------|--------------------------------|

              Breakdown
           H=104
              6/4

  W            E E E E E E E E E E E E   E E E E E E E E E E E E
|----------||--------------------------|--------------------------|
|----------||o-------------------------|--------------------------|
|----------||--------------------------|--------------------------|
|----------||--------------------------|--------------------------|
|----------||o-------------------------|--------------------------|
|----------||--3-2-0-3-2-0-0-0---0---0-|-3-2-0-0-0---0---0---0----|

  E E E E E E E E E E E E   E E E E E E E E E E E E  6x
|-------------------------|--------------------------||
|-------------------------|-------------------------o||
|-------------------------|--------------------------||
|-------------------------|--------------------------||
|-------------------------|-3---4-------3-----------o||
|-3-2-0-3-2-0-0-0---0---0-|---------5-------2---5----||

    E E E E E E E E E E E E   E E E E E E E E E E E E
||--------------------------|-------------------------|
||o-------------------------|-------------------------|
||--------------------------|-------------------------|
||--------------------------|-------------------------|
||o-------------------------|-------------------------|
||--3-2-0-3-2-0-0-0---0---0-|-3-2-0-0-0---0---0---0---|

  E E E E E E E E E E E E   E E E E E E E E E E E E
|-------------------------|---------------------------||
|-------------------------|--------------------------o||
|-------------------------|---------------------------||
|-------------------------|---------------------------||
|-------------------------|--------------------------o||
|-3-2-0-3-2-0-0-0---0---0-|-7p0-8p0-5p0-7p0-2p0-5p0---||

    E E E E E E E E E E E E   E E E E E E E E E E E E
||--------------------------|-------------------------|
||o-------------------------|-------------------------|
||--------------------------|-------------------------|
||--------------------------|-------------------------|
||o-------------------------|-------------------------|
||--6-5-3-6-5-3-3-3---3---3-|-6-5-3-3-3---3---3---3---|

  E E E E E E E E E E E E   Q  Q  Q  Q  Q  Q
|-------------------------|---------------------||
|-------------------------|--------------------o||
|-------------------------|---------------------||
|-------------------------|---------------------||
|-------------------------|-6--7--4--6-----4---o||
|-6-5-3-6-5-3-3-3---3---3-|-------------5-------||

  E E E E E E E E E Q  E   E E E E  E E  E E  E E E E
|------------------------|----------------------------|
|------------------------|----------------------------|
|------------------------|----------------------------|
|------------------------|----------------------------|
|---------------6h8------|---------10---11---10---8---|
|-3-2-0-3-2-0-0-----0--0-|-8-7-0-0----0----0----0---0-|

  E E E E E E E E E Q  E   E E E E E E E E E E E E
|------------------------|---------------------------|
|------------------------|---------------------------|
|------------------------|---------------------------|
|---------------6h8------|---------------------------|
|------------------------|-6---8---4---6---3---4-----|
|-8-7-0-8-7-0-0-----0--0-|---0---0---0---0---0---0---|

  E E E E E E E E E Q  E    E E E E E E  E E E E E E
|------------------------|---------------------------|
|------------------------|---------------------------|
|------------------------|---------------------------|
|---------------5h6------|----------8---10---8---6---|
|------------------------|---------------------------|
|-7-5-0-7-5-0-0-----0--0-|-10-8-0-0---0----0---0---0-|

   E  E E  E  E E E  E  E Q  E    E E  E E E E  E E E E E E
|------------------------------|------------------------------|
|------------------------------|------------------------------|
|------------------------------|------------------------------|
|-------------------10h11------|------------------------------|
|------------------------------|-10---11---8---10---6---8-----|
|-12-10-0-12-10-0-0-------0--0-|----0----0---0----0---0---0---|

   Keyboard Interlude
    H=98
                             5/4

    E E E E E E E E E E E E   E E E E E E E E E E
||--------------------------|---------------------|
||o-------------------------|---------------------|
||--------------------------|---------------------|
||--------------------------|---------------------|
||o-------------------------|---------------------|
||--3-3---3---3-3---3---3---|-3-3---3---3-3---3---|

 6/4

  E E E E E E E E E E E E   E E E E E E E E E E E E
|-------------------------|-------------------------|
|-------------------------|-------------------------|
|-------------------------|-------------------------|
|-------------------------|-------------------------|
|-------------------------|---------------------1---|
|-3-3---3---3-3---3---3---|-3-3---3---3-3---3-------|

                           5/4

  E E E E E E E E E E E E   E E E E E E E E E E
|-------------------------|---------------------|
|-------------------------|---------------------|
|-------------------------|---------------------|
|-------------------------|---------------------|
|-2-2---2---2-2---2---2---|-2-2---2---2-2---2---|
|-------------------------|---------------------|

 6/4

  E E E E E E E E E E E E   E E E E E E E E E E E E
|-------------------------|---------------------------||
|-------------------------|--------------------------o||
|-------------------------|---------------------------||
|-------------------------|---------------------------||
|-2-2---2---2-2---2---2---|-2-2---2---2-2---2---2----o||
|-------------------------|---------------------------||

                             5/4

    E E E E E E E E E E E E   Q.   Q.   Q  Q
||--------------------------|-----------------|
||o-------------------------|-----------------|
||--------------------------|-----------------|
||--------------------------|-2----3----------|
||o-------------------------|-----------1--2--|
||--3-3---3---3-3---3---3---|-----------------|

 6/4

  E E E E E E E E E E E E   Q.   Q.   Q  Q  Q
|-------------------------|--------------------|
|-------------------------|--------------------|
|-------------------------|--------------------|
|-------------------------|-2----3-------------|
|-------------------------|-----------1--2--4--|
|-3-3---3---3-3---3---3---|--------------------|

                           5/4

  E E E E E E E E E E E E   Q.   Q.   Q  Q
|-------------------------|-----------------|
|-------------------------|-----------------|
|-------------------------|-----------------|
|-------------------------|-5----6----------|
|-2-2---2---2-2---2---2---|-----------4--5--|
|-------------------------|-----------------|

 6/4

  E E E E E E E E E E E E   Q.   Q.   Q  Q  Q
|-------------------------|----------------------||
|-------------------------|---------------------o||
|-------------------------|----------------------||
|-------------------------|-5----6---------------||
|-2-2---2---2-2---2---2---|-----------4--5--2---o||
|-------------------------|----------------------||

                           5/4

  E E E E E E E E E E E E   E E E E E E E E E E
|-------------------------|---------------------|
|-------------------------|---------------------|
|-------------------------|---------------------|
|-0-0-0-0-0-0-0-0-0-0-0-0-|-0-0-0-0-0-0-0-0-0-0-|
|-------------------------|---------------------|
|-------------------------|---------------------|

 6/4

  E E E E E E E E E E E E   E E E E E E E E E E E E
|-------------------------|--------------------------|
|-------------------------|--------------------------|
|-------------------------|--------------------------|
|-0-0-0-0-0-0-0-0-0-0-0-0-|-0-0-0-0-0-0-0-0-0-0-0-0--|
|-------------------------|--------------------------|
|-------------------------|--------------------------|

                           5/4

  E E E E E E E E E E E E   E E E E E E E E E E
|-------------------------|---------------------|
|-------------------------|---------------------|
|-------------------------|---------------------|
|-3-3-3-3-3-3-3-3-3-3-3-3-|-3-3-3-3-3-3-3-3-3-3-|
|-------------------------|---------------------|
|-------------------------|---------------------|

 6/4

  E E E E E E E E E E E E   E E E E E E E E E E E E
|-------------------------|--------------------------|
|-------------------------|--------------------------|
|-------------------------|--------------------------|
|-3-3-3-3-3-3-3-3-3-3-3-3-|-3-3-3-3-3-3-3-3-3-3-3-3--|
|-------------------------|--------------------------|
|-------------------------|--------------------------|

 Guitar Break
                           5/4

  E E E E E E E E E E E E   E E E E E E E E E E
|-------------------------|---------------------|
|-------------------------|---------------------|
|-------------------------|---------------------|
|-------------------------|---------------------|
|-------------------------|---------------------|
|-3-3---3---3-3---3---3---|-3-3---3---3-3---3---|

 6/4

  E E E E E E E E E E E E   E E E E E E E E E E E E
|-------------------------|--------------------------|
|-------------------------|--------------------------|
|-------------------------|--------------------------|
|-------------------------|--------------------------|
|-------------------------|--------------------------|
|-3-3---3---3-3---3---3---|-3-3---3---3-3---3---3----|

                           5/4

  E E E E E E E E E E E E   E E E E E E E E E E
|-------------------------|---------------------|
|-------------------------|---------------------|
|-------------------------|---------------------|
|-------------------------|---------------------|
|-2-2---2---2-2---2---2---|-2-2---2---2-2---2---|
|-------------------------|---------------------|

 6/4

  E E E E E E E E E E E E   E E E E E E E E E E E E
|-------------------------|--------------------------|
|-------------------------|--------------------------|
|-------------------------|--------------------------|
|-------------------------|--------------------------|
|-2-2---2---2-2---2---2---|-2-2---2---2-2---2---2----|
|-------------------------|--------------------------|

                           5/4

  E E E E E E E E E E E E   E E E E E E  E E E  E
|-------------------------|-----------------------|
|-------------------------|----------------7-8-10-|
|-----------------------6-|-7-6-7-9-7-9-10--------|
|---------------5-6-8-9---|-----------------------|
|-5-4-5-7-5-7-8-----------|-----------------------|
|-------------------------|-----------------------|

 6/4

  E E E E E E E E E E E E   E E E E E E  E E E  E  E E
|-------------------------|--------------------------8-|
|-------------------------|----------------7-8-10-11---|
|-----------------------6-|-7-6-7-9-7-9-10-------------|
|---------------5-6-8-9---|----------------------------|
|-5-4-5-7-5-7-8-----------|----------------------------|
|-------------------------|----------------------------|

  E E E E E E E E E E  E E   E E E  E E  E  E E E  E  E E
|--------------------------|----------------------------9-|
|--------------------------|------------------8-9-11-12---|
|------------------------7-|-8-7-8-10-8-10-11-------------|
|---------------6-7-9-10---|------------------------------|
|-6-5-6-8-6-8-9------------|------------------------------|
|--------------------------|------------------------------|

  Q  Q  Q  Q  Q  Q     Q  Q  Q  Q  Q  Q
|--------------------|-------------------|
|--------------------|-------------------|
|--------------------|-------------------|
|--------------------|-------------------|
|-7--7--7--7--7--7--|-3--3--3--3--3--3--|
|--------------------|-------------------|

  Q=188
 6/8

  q  q  q    q  q  q    E E E E q    q  q  q
|----------|----------|------------|----------|
|----------|----------|------------|----------|
|----------|----------|------------|----------|
|----------|----------|------------|----------|
|----------|----------|------------|----------|
|-0--0--0--|-0--0--0--|-6-6-6-6-0--|-0--0--0--|

  q  q  E E   E E q  q    q  q  q    q  E E E E
|-----------|-----------|----------|------------|
|-----------|-----------|----------|------------|
|-----------|-----------|----------|------------|
|-----------|-----------|----------|------------|
|-----------|-----------|----------|----4-4-4-4-|
|-0--0--3-3-|-3-3-0--0--|-0--0--0--|-0----------|

                       3/8

  q  q  q    q  q  q    E E E
|----------|----------|-------|
|----------|----------|-------|
|----------|----------|-------|
|----------|----------|-------|
|----------|----------|-6-6-6-|
|-0--0--0--|-0--0--0--|-------|

 Keyboard Solo
 4/4

  E q  q  q  E   E q  q  E E E   E q  q  q  E   E q  q  E E E
|--------------|---------------|--------------|---------------|
|--------------|---------------|--------------|---------------|
|--------------|---------------|--------------|---------------|
|--------------|---------------|--------------|---------------|
|-6------------|---------------|--------------|---------------|
|---0--0--0--0-|---0--0--6-6-6-|-6-0--0--0--0-|---0--0--3-3-3-|

  E q  q  q  E   E q  q  E E E   E q  q  q  E   E q  q  E E E
|--------------|---------------|--------------|----------------|
|--------------|---------------|--------------|----------------|
|--------------|---------------|--------------|----------------|
|--------------|---------------|--------------|----------------|
|--------------|---------4-4-4-|-4------------|---------6-6-6--|
|-3-0--0--0--0-|---0--0--------|---0--0--0--0-|---0--0---------|

    E E E E E E E E   E E E E E E E E   E E E E E E E E   E E E E E E E E
||------------------|-----------------|-----------------|-----------------|
||o-----------------|-----------------|-----------------|-----------------|
||------------------|-----------------|-----------------|-----------------|
||------------------|-----------------|-----------------|-----------------|
||o-----------------|-----------------|-----------------|-----------------|
||--0-0-0-0-0-0-0-0-|-0-0-0-0-2-3-3-3-|-0-0-0-0-0-0-0-0-|-0-0-0-0-3-6-6-6-|

  E E E E E E E E   E E E E E E E E
|-----------------|-----------------|
|-----------------|-----------------|
|-----------------|-----------------|
|-----------------|-----------------|
|-----------------|-----------------|
|-0-0-0-0-0-0-0-0-|-0-0-0-0-2-3-3-3-|

  E E E E E E E   E   E  E  +E   E E E E E
|-------------------|------------------------||
|-------------------|-----------------------o||
|-------------------|-8------------5---------||
|---------------/10-|---10-(10)-6---6-4-----||
|-------------------|--------------------3--o||
|-0-0-0-0-0-0-0-----|------------------------||

 Chorus
 7/4                       8/4

  H    E E E Q  E E E E E   H    E E E E +H     H
|-------------------------|--------------------------|
|-------------------------|--------------------------|
|--------6--------8-6-5---|--------6-----------------|
|------6---6----6-------6-|------6---6---------------|
|-4----------4------------|-4----------4-(4)----6----|
|-------------------------|--------------------------|

 7/4                     8/4

  Q  Q  Q  E Q  Q  Q  E   Q  Q  Q  E Q  Q  Q  Q  E
|-----------------------|---------------------------|
|-----------------------|---------------------------|
|-----------------------|---------------------------|
|-----------------------|---------------------------|
|-----------------------|---------------------------|
|-0--0--0--0-0--0--0--0-|-0--0--0--0-0--0--0--0--0--|

 7/4                       8/4

  H    E E E Q  E E E E E   H    E E E E +H     H
|-------------------------|--------------------------|
|-------------------------|--------------------------|
|--------6--------8-6-5---|--------6-----------------|
|------6---6----6-------6-|------6---6---------------|
|-4----------4------------|-4----------4-(4)----6----|
|-------------------------|--------------------------|

 10/4
                      |-3-| |-3-|

  Q.   Q.   Q  E Q.   E E E E E E E Q.
|-----------------------------------------|
|-----------------------------------------|
|--------------x-6----6-3-----------------|
|-6----8----5-------------5-2-------------|
|-----------------------------4-1---------|
|---------------------------------1-1-----|

   Bridge
   8/4

    E Q  E Q  E E E E Q  E Q  E   E Q  E Q  E E E E Q  E E E E
||------------------------------|-------------------------------|
||o-----------------------------|-------------------------------|
||------------------------------|-------------------------------|
||------------------------------|-------------------------------|
||o-----------------------------|-------------------4-----------|
||--0-7--0-6--0-3-2-0-5--0-2--3-|-0-7--0-6--0-3-2-0----2-3-2-3--|

  E Q  E Q  E E E E Q  E Q  E   E Q  E Q  E E E E Q  E E E E
|-----------------------------|--------------------------------||
|-----------------------------|-------------------------------o||
|-----------------------------|--------------------------------||
|-----------------------------|--------------------------------||
|-----------------------------|-------------------4-----------o||
|-0-7--0-6--0-3-2-0-5--0-2--3-|-0-7--0-6--0-3-2-0----2-3-2-3---||

   Outro
   4/4

    E E E E E E E E   E E E E E E E E   E E E E E E E E   E E E E E E E E
||------------------|-----------------|-----------------|------------------|
||o-----------------|-----------------|-----------------|------------------|
||------------------|-----------------|-----------------|------------------|
||------------------|-----------------|-----------------|------------------|
||o-----------------|-----------------|-----------------|------------------|
||--0-0-0-0-0-0-0-0-|-0-0-0-0-2-3-3-3-|-0-0-0-0-0-0-0-0-|-0-0-0-0-3-6-6-6--|

  E E E E E E E E   E E E E E E E E
|-----------------|-----------------|
|-----------------|-----------------|
|-----------------|-----------------|
|-----------------|-----------------|
|-----------------|-----------------|
|-0-0-0-0-0-0-0-0-|-0-0-0-0-2-3-3-3-|

  E E E E E E E   E   E  E  +E   E E E E E   3x
|-------------------|------------------------||
|-------------------|-----------------------o||
|-------------------|-8------------5---------||
|---------------/10-|---10-(10)-6---6-4-----||
|-------------------|--------------------3--o||
|-0-0-0-0-0-0-0-----|------------------------||

  E E E E E E E E   E E E E E E E E   E E E E E E E E   E E E E E E E E
|-----------------|-----------------|-----------------|------------------|
|-----------------|-----------------|-----------------|------------------|
|-----------------|-----------------|-----------------|------------------|
|-----------------|-----------------|-----------------|------------------|
|-----------------|-----------------|-----------------|------------------|
|-0-0-0-0-0-0-0-0-|-0-0-0-0-2-3-3-3-|-0-0-0-0-0-0-0-0-|-0-0-0-0-3-6-6-6--|

  E E E E E E E E   E E E E E E E E   E E E E E E E   E
|-----------------|-----------------|-------------------|
|-----------------|-----------------|-------------------|
|-----------------|-----------------|-------------------|
|-----------------|-----------------|---------------/10-|
|-----------------|-----------------|-------------------|
|-0-0-0-0-0-0-0-0-|-0-0-0-0-2-3-3-3-|-0-0-0-0-0-0-0-----|

  E  E  +E   E E E Q    +Q   +Q    H
|---------------------|-----------------*|
|---------------------|-----------------*|
|-8------------5------|-----------------*|
|---10-(10)-6---6-4---|-(4)--(4)--------*|
|---------------------|-----------------*|
|---------------------|-----------------*|
						
# Artist Title Tabdesignator