Dream Theater

Endless Sacrifice Original Song


							
Endless Sacrifice
*Guitar Intro*
G |---------|---------|---------|-------2--|-3--------|-------14--12--|
D |---------|---------|---------|----------|----------|-10------------|
A |---------|---------|---------|----------|----------|---------------|
D |---------|---------|---------|----------|----------|---------------|

|-14--------|----------|----------|-10------------|---------18-19-18--|
|-0---------|----------|----------|-----15--------|-----17------------|
|-----------|----------|----------|-----------19--|-16----------------|
|-----------|-------7--|-8--------|---------------|-------------------|

|---------|----------|----------|----------|-----------|----------|----------|
|---------|----------|----------|----------|-----------|----------|----------|
|-13--12--|----------|-------0--|----------|------0----|----------|-------0--|
|---------|-0--------|----------|-8--------|-9---------|-0--------|----------|

|----------|-----------|-----------|----------|----------|----------|---------|
|----------|-----------|-----------|----------|----------|----------|---------|
|----------|-----------|-----1--0--|----------|-------0--|-1--------|---------|
|-8--------|-3------2--|-----------|-0--------|----------|----------|---------|

|----------|---------|---------|----------|---------|-------|----------|
|----------|---------|---------|----------|---------|-------|----------|
|----------|---------|---------|----------|---------|-1--0--|----------|
|-0--------|---------|---------|-3--------|---------|-------|-0--------|

|----------|----------|-----------|----------|----------|----------|-----------|
|----------|----------|-----------|----------|----------|----------|-----------|
|-------0--|-1--------|-2----0----|----------|-------0--|-1--------|-----------|
|----------|----------|-----------|-0--------|----------|----------|-3------2--|

|-----------|----------|----------|----------|---------|----------|---------|
|-----------|----------|----------|----------|---------|----------|---------|
|-----1--0--|----------|-------0--|-1--------|---------|----------|---------|
|-----------|-0--------|----------|----------|---------|-0--------|---------|

|---------|----------|---------|-------|----------|----------|----------|
|---------|----------|---------|-------|----------|----------|----------|
|---------|----------|---------|-1--0--|----------|-------0--|-1--------|
|---------|-3--------|---------|-------|-0--------|----------|----------|

|-----------|----------|----------|----------|-----------|-----------|
|-----------|----------|----------|----------|-----------|-----------|
|-2----0----|----------|-------0--|-1--------|-----------|-----1--0--|
|-----------|-0--------|----------|----------|-3------2--|-----------|

|----------|----------|----------|---------|----------|---------|---------|
|----------|----------|----------|---------|----------|---------|---------|
|----------|-------0--|-1--------|---------|----------|---------|---------|
|-0--------|----------|----------|---------|-0--------|---------|---------|

|----------|---------|-------|------------|----------|----------|----------|
|----------|---------|-------|------------|-5--------|-2--------|-1--------|
|----------|---------|-1--0--|------------|----------|----------|----------|
|-3--------|---------|-------|-5--5--5----|----------|----------|----------|

|------------|---------|----------|--------------|------------|----------|
|------5--3--|---------|----------|--------------|------------|-5--------|
|------------|---------|-3--------|--------------|------------|----------|
|-5----------|---------|----------|-4------------|-5--5--5----|----------|

|----------|----------|------------|---------|----------|----------|
|-2--------|-3--------|------5--3--|---------|-2--------|-1--------|
|----------|----------|------------|---------|----------|----------|
|----------|----------|-5----------|---------|----------|----------|

|-------------|-------------|--------------|-------------|--------------|
|-------------|-------------|--------------|-------------|--------------|
|-1--1--1--1--|-3--3--3--3--|--------------|-------------|--------------|
|-------------|-------------|-0---0-3-5-0--|--0-3-5-0----|-0---0-3-5-0--|

|---------------|---------------|--------------|--------------|
|---------------|---------------|--------------|--------------|
|-----0-1-0-----|---------------|--------------|--------------|
|-0-0--------3--|-0---0-3-5-0-0-|-3-0-3-5-0----|-0---0-3-5-0--|

|-----------------|--------------|--------------|--------------|---------------|
|-----------------|--------------|--------------|--------------|---------------|
|-1-1-1-1-3-3-3-3-|--------------|--------------|--------------|-----0-1-0-----|
|-----------------|-0---0-3-5-0--|-0-0-3-5-0----|-0---0-3-5-0--|-0-0--------3--|

|--------------|--------------|---------------|-----------------|----------|
|--------------|--------------|---------------|-----------------|----------|
|--------------|--------------|---------------|-1-1-1-1-3-3-3-3-|----------|
|-0---0-3-5-0--|-0-0-3-5-0----|-0---0-3-5-0-0-|-----------------|-0--------|

|---------|----------|---------|----------|-----------|----------|----------|
|---------|----------|---------|----------|-----------|----------|----------|
|---------|----------|---------|----------|---------0-|-1--------|-4--------|
|---------|-2--------|---------|-5--------|-------5---|----------|----------|

|----------|----------|----------|---------|----------|-----------|----------|
|----------|----------|----------|---------|----------|-----------|----------|
|----------|----------|----------|---------|----------|---------0-|-1--------|
|-0--------|-----0----|-2--------|---------|-5--------|-------5---|----------|

|----------|----------|----------|----------|-----------|----------|----------|
|----------|----------|----------|----------|-----------|----------|----------|
|-4--------|----------|-------0--|-1--------|-2----0----|----------|-------0--|
|----------|-0--------|----------|----------|-----------|-0--------|----------|

|----------|-----------|-----------|----------|---------|----------|---------|
|----------|-----------|-----------|----------|---------|----------|---------|
|-1--------|-----------|-----1--0--|----------|---------|-1--------|---------|
|----------|-3------2--|-----------|-0--------|---------|----------|---------|

|----------|---------|---------|----------|---------|-------|----------|
|----------|---------|---------|----------|---------|-------|----------|
|----------|---------|---------|----------|---------|-1--0--|----------|
|-0--------|---------|---------|-3--------|---------|-------|-0--------|

|----------|----------|-----------|----------|----------|----------|-----------|
|----------|----------|-----------|----------|----------|----------|-----------|
|-------0--|-1--------|-2----0----|----------|-------0--|-1--------|-----------|
|----------|----------|-----------|-0--------|----------|----------|-3------2--|

|-----------|----------|----------|----------|---------|----------|---------|
|-----------|----------|----------|----------|---------|----------|---------|
|-----1--0--|----------|-------0--|-1--------|---------|----------|---------|
|-----------|-0--------|----------|----------|---------|-0--------|---------|

|---------|----------|---------|-------|------------|----------|----------|
|---------|----------|---------|-------|------------|-5--------|-2--------|
|---------|----------|---------|-1--0--|------------|----------|----------|
|---------|-3--------|---------|-------|-5--5--5----|----------|----------|

|----------|------------|---------|----------|--------------|------------|
|-1--------|------5--3--|---------|----------|--------------|------------|
|----------|------------|---------|-3--------|--------------|------------|
|----------|-5----------|---------|----------|-4------------|-5--5--5----|

|----------|----------|----------|------------|---------|----------|----------|
|-5--------|-2--------|-3--------|------5--3--|---------|-2--------|-1--------|
|----------|----------|----------|------------|---------|----------|----------|
|----------|----------|----------|-5----------|---------|----------|----------|

|-------------|-------------|--------------|--------------|--------------|
|-------------|-------------|--------------|--------------|--------------|
|-1--1--1--1--|-3--3--3--3--|--------------|--------------|--------------|
|-------------|-------------|-0---0-3-5-0--|-0-0-3-5-0----|-0---0-3-5-0--|

|---------------|---------------|--------------|--------------|
|---------------|---------------|--------------|--------------|
|-----0-1-0-----|---------------|--------------|--------------|
|-0-0--------3--|-0---0-3-5-0-0-|-3-0-3-5-0----|-0---0-3-5-0--|

|-----------------|--------------|--------------|--------------|---------------|
|-----------------|--------------|--------------|--------------|---------------|
|-1-1-1-1-3-3-3-3-|--------------|--------------|--------------|-----0-1-0-----|
|-----------------|-0---0-3-5-0--|-0-0-3-5-0----|-0---0-3-5-0--|-0-0--------3--|

|--------------|--------------|---------------|-----------------|--------------|
|--------------|--------------|---------------|-----------------|--------------|
|--------------|--------------|---------------|-1-1-1-1-3-3-3-3-|--------------|
|-0---0-3-5-0--|-0-0-3-5-0----|-0---0-3-5-0-0-|-----------------|-0---0-3-5-0--|

|--------------|--------------|---------------|---------------|--------------|
|--------------|--------------|---------------|---------------|--------------|
|--------------|--------------|-----0-1-0-----|---------------|--------------|
|-0-0-3-5-0----|-0---0-3-5-0--|-0-0--------3--|-0---0-3-5-0-0-|-3-0-3-5-0----|

|--------------|-----------------|--------------|--------------|--------------|
|--------------|-----------------|--------------|--------------|--------------|
|--------------|-1-1-1-1-3-3-3-3-|--------------|--------------|--------------|
|-0---0-3-5-0--|-----------------|-0---0-3-5-0--|-0-0-3-5-0----|-0---0-3-5-0--|

|---------------|---------------|--------------|--------------|
|---------------|---------------|--------------|--------------|
|-----0-1-0-----|---------------|--------------|--------------|
|-0-0--------3--|-0---0-3-5-0-0-|-3-0-3-5-0----|-0---0-3-5-0--|

|-----------------|----------|-------------|---------|---------|----------|
|-----------------|----------|-------------|---------|---------|----------|
|-1-1-1-1-3-3-3-3-|----------|-------------|---------|---------|----------|
|-----------------|-0--------|-------------|---------|---------|---0------|

|---------7-7-7-7-----|----------|---------7-7-7-7-----|---------|---------|
|---------------------|----------|---------------------|---------|---------|
|---------------------|----------|---------------------|---------|---------|
|---------------------|-----0----|---------------------|---------|---------|

|--------------------------|--------------------------|
|--------------------------|--------------------------|
|--------------1-----------|--------------------------|
|-3-2-0--0--0-------3-2-0--|-3-2-0--0--0--3-2-0--6----|

|--------------------------|--------------------------|
|--------------------------|--------------------------|
|--------------1-----------|--------------------------|
|-3-2-0--0--0-------3-2-0--|-3-2-0--0--0--3-2-0--6----|

|--------------------------|--------------------------|
|--------------------------|--------------------------|
|--------------1-----------|--------------------------|
|-3-2-0--0--0-------3-2-0--|-3-2-0--0--0--3-2-0--6----|

|--------------------------|--------------------------|
|--------------------------|--------------------------|
|--------------1-----------|--------------------------|
|-3-2-0--0--0-------3-2-0--|-3-2-0--0--0--3-2-0--6----|

|--------------------------|--------------------------|
|--------------------------|--------------------------|
|--------------1-----------|--------------------------|
|-3-1-0--0--0-------3-1-0--|-3-1-0--0--0--3-1-0--6----|

|--------------------------|--------------------------|
|--------------------------|--------------------------|
|--------------1-----------|--------------------------|
|-3-1-0--0--0-------3-1-0--|-3-1-0--0--0--3-1-0--6----|

|--------------------------|--------------------------|
|--------------------------|--------------------------|
|--------------1-----------|--------------------------|
|-3-1-0--0--0-------3-1-0--|-3-1-0--0--0--3-1-0--6----|

|--------------------------|--------------------------|
|--------------------------|--------------------------|
|--------------1-----------|--------------------------|
|-3-1-0--0--0-------3-1-0--|-3-1-0--0--0--3-1-0--6----|

|-------------------------|-------------------------|-------------------------|
|-------------------------|-------------------------|-------------------------|
|--------------------1----|--------------1----------|--------------------1----|
|-2--2--5-3-2--2--2-------|-2--2--5-3-2-----2--6----|-2--2--5-4-2--2--2-------|

|--------------------------|-------------------------|-------------------------|
|--------------------------|-------------------------|-------------------------|
|---------------1--0-------|--------------------1----|--------------1----------|
|-2--2--5-4-2-2-------6----|-2--2--5-3-2--2--2-------|-2--2--5-3-2-----2--6----|

|-------------------------|--------------------------|-0-7-0-----5-----|
|-------------------------|--------------------------|-------3-2-------|
|--------------------1----|---------------1--0-------|-------------7-6-|
|-2--2--5-4-2--2--2-------|-2--2--5-4-2-2-------6----|-----------------|

|-3-----------3--|-0-7-0---------|-0-0--2------2-|-----------------|
|---------0-3----|-------3-2-----|---------------|---0-------------|
|---6-3-4--------|-----------3---|---------5-6---|-----------3-----|
|----------------|---------------|---------------|-5---5-3-2---2-1-|

|--------------|---------------|---------7-----3-|-------------0---|
|--------------|---0-----------|-----------------|-----------------|
|-1---------1--|-----------3---|-0-4-0-----5-6---|-----8-7---------|
|---1---0-3----|-5---5-3-2-----|-------5---------|-5-8-----5-8---5-|

|-----------0-9--|--------------7---|-0-9-7-----9---|-------------0---|
|---7-5---0------|-----10-8---------|---------8-----|-----3-2---------|
|-3--------------|---7--------8-----|---------------|---1-------1-----|
|-------5--------|-5--------5-----5-|-------5-------|-5-------5-----5-|

|-----------0-9--|--------------7---|-0-9-7-----9---|-----------------|
|---7-5---0------|-----10-8---------|---------8-----|-3-5-0-------1---|
|-3--------------|---7--------8-----|---------------|---------0-2---0-|
|-------5--------|-5--------5-----5-|-------5-------|-------5---------|

|-----------------|-----|---------------1-|-3-6-------|---------|-----|
|---3-------3-5---|-----|---------0-2-4---|-----------|---------|-----|
|-1---1-2-3-----3-|-4---|-----1-3---------|-----------|---------|-----|
|-----------------|---6-|-4-6-------------|-----------|---------|-----|

|--------------------3----|--------------3-----1----|--------------------3----|
|-2--2--5-3-2--2--2-------|-2--2--5-3-2-----2-------|-2--2--5-3-2--2--2-------|
|-------------------------|-------------------------|-------------------------|
|-------------------------|-------------------------|-------------------------|

|---------------3--2--1----|-------------------------|-------------------------|
|-2--2--5-3-2-2------------|-------------------------|-------------------------|
|--------------------------|--------------------1----|--------------1----------|
|--------------------------|-2--2--5-3-2--2--2-------|-2--2--5-3-2-----2--6----|

|-------------------------|--------------------------|---------|---------|
|-------------------------|--------------------------|---------|---------|
|--------------------1----|---------------1--0-------|---------|---------|
|-2--2--5-3-2--2--2-------|-2--2--5-3-2-2-------6----|---------|---------|

|---------|-------|--------------------------|--------------------------|
|---------|-------|--------------------------|--------------------------|
|---------|-------|--------------1-----------|--------------------------|
|---------|-------|-3-1-0--0--0-------3-1-0--|-3-1-0--0--0--3-1-0--6----|

|--------------------------|--------------------------|
|--------------------------|--------------------------|
|--------------1-----------|--------------------------|
|-3-1-0--0--0-------3-1-0--|-3-1-0--0--0--3-1-0--6----|

|--------------------------|--------------------------|
|--------------------------|--------------------------|
|--------------1-----------|--------------------------|
|-3-1-0--0--0-------3-1-0--|-3-1-0--0--0--3-1-0--6----|

|--------------------------|--------------------------|
|--------------------------|--------------------------|
|--------------1-----------|--------------------------|
|-3-1-0--0--0-------3-1-0--|-3-1-0--0--0--3-1-0--6----|

|-------------------------|-------------------------|-------------------------|
|-------------------------|-------------------------|-------------------------|
|--------------------1----|--------------1----------|--------------------1----|
|-2--2--5-3-2--2--2-------|-2--2--5-3-2-----2--6----|-2--2--5-3-2--2--2-------|

|--------------------------|-------------------------|-------------------------|
|--------------------------|-------------------------|-------------------------|
|---------------1--0-------|--------------------1----|--------------1----------|
|-2--2--5-3-2-2-------6----|-2--2--5-3-2--2--2-------|-2--2--5-3-2-----2--6----|

|-------------------------|--------------------------|
|-------------------------|--------------------------|
|--------------------1----|---------------1--0-------|
|-2--2--5-3-2--2--2-------|-2--2--5-3-2-2-------6----|

|--------------------------|--------------------------|
|--------------------------|--------------------------|
|--------------1-----------|--------------------------|
|-3-1-0--0--0-------3-1-0--|-3-1-0--0--0--3-1-0--6----|

|--------------------------|--------------------------|
|--------------------------|--------------------------|
|--------------1-----------|--------------------------|
|-3-1-0--0--0-------3-1-0--|-3-1-0--0--0--3-1-0--6----|

|--------------------------|--------------------------|
|--------------------------|--------------------------|
|--------------1-----------|--------------------------|
|-3-1-0--0--0-------3-1-0--|-3-1-0--0--0--3-1-0--6----|

|--------------------------|--------------------------|
|--------------------------|--------------------------|
|--------------1-----------|--------------------------|
|-3-1-0--0--0-------3-1-0--|-3-1-0--0--0--3-1-0--6----|

|-------------------------|-------------------------|-------------------------|
|-------------------------|-------------------------|-------------------------|
|--------------------1----|--------------1----------|--------------------1----|
|-2--2--5-3-2--2--2-------|-2--2--5-3-2-----2--6----|-2--2--5-3-2--2--2-------|

|--------------------------|-------------------------|-------------------------|
|--------------------------|-------------------------|-------------------------|
|---------------1--0-------|--------------------1----|--------------1----------|
|-2--2--5-3-2-2-------6----|-2--2--5-3-2--2--2-------|-2--2--5-3-2-----2--6----|

|-------------------------|--------------------------|
|-------------------------|--------------------------|
|--------------------1----|---------------1--0-------|
|-2--2--5-3-2--2--2-------|-2--2--5-3-2-2-------6----|

|--------------------------|--------------------------|
|--------------------------|--------------------------|
|--------------1-----------|--------------------------|
|-3-1-0--0--0-------3-1-0--|-3-1-0--0--0--3-1-0--6----|

|--------------------------|--------------------------|
|--------------------------|--------------------------|
|--------------1-----------|--------------------------|
|-3-1-0--0--0-------3-1-0--|-3-1-0--0--0--3-1-0--6----|

|--------------------------|--------------------------|
|--------------------------|--------------------------|
|--------------1-----------|--------------------------|
|-3-1-0--0--0-------3-1-0--|-3-1-0--0--0--3-1-0--6----|

|--------------------------|--------------------------|
|--------------------------|--------------------------|
|--------------1-----------|--------------------------|
|-3-1-0--0--0-------3-1-0--|-3-1-0--0--0--3-1-0--6----|

|-------------------------|-------------------------|-------------------------|
|-------------------------|-------------------------|-------------------------|
|--------------------1----|--------------1----------|--------------------1----|
|-2--2--5-3-2--2--2-------|-2--2--5-3-2-----2--6----|-2--2--5-3-2--2--2-------|

|--------------------------|-------------------------|-------------------------|
|--------------------------|-------------------------|-------------------------|
|---------------1--0-------|--------------------1----|--------------1----------|
|-2--2--5-3-2-2-------6----|-2--2--5-3-2--2--2-------|-2--2--5-3-2-----2--6----|

|-------------------------|--------------------------|-----------|----------|
|-------------------------|--------------------------|-----------|----------|
|--------------------1----|---------------1--0-------|-----------|----------|
|-2--2--5-3-2--2--2-------|-2--2--5-3-2-2-------6----|-0-------0-|-0--------|

|-----------|------------|---------------------------------|
|-----------|-0-0--------|---------------------------------|
|-----------|------------|---------------------------------|
|-0-------0-|----------0-|-2-2-2-2-2-2-2-2-2-2-2-2-2-2-2-2-|

|---------------------------------|---------------------------------|
|---------------------------------|---------------------------------|
|---------------------------------|---------------------------------|
|-2-2-2-2-2-2-2-2-2-2-2-2-2-2-2-2-|-5-5-5-5-5-5-5-5-5-5-5-5-5-5-5-5-|

|---------------------------------|-----------------|-----------------|
|---------------------------------|-----------------|-----------------|
|---------------------------------|-----------------|-----------------|
|-5-5-5-5-5-5-5-5-5-5-5-5-5-5-5-5-|-0-0-0-0-0-0-0-0-|-2-2-2-2-2-2-2-2-|

|-----------------|--------------------------|-----|---|---------|
|-----------------|--------------------------|-----|---|---------|
|-----------------|-1-1-1-1-1-1-1-1-0--------|-----|---|---------|
|-5-5-5-5-5-5-5-5-|--------------------------|-----|---|---------|

|---------------|------------|---------------|-----------------------------|
|---------------|------------|-------0-------|-----------------------------|
|-3-5-------3-5-|------------|-3-5-----------|--------0-1--3-1-0----0------|
|-----0-0-------|-0-0--6-----|-----0----0-0--|-2-3--5-------------5---3--5-|

|---------------|------------|---------------|---------------------------------|
|---------------|------------|-------0-------|---------------------------------|
|-3-5-------3-5-|------------|-3-5-----------|-3-1-0---1-0-----0---------------|
|-----0-0-------|-0-0--6-----|-----0----0-0--|-------5-----5-3---5-3-2-5-3-2-0-|

|---------------|------------|--------------|-----------------------------|
|---------------|------------|-------0------|-----------------------------|
|-3-5-------3-5-|------------|-3-5----------|--------0-1--3-1-0----0------|
|-----0-0-------|-0-0--6-----|-----0-----0--|-2-3--5-------------5---3--5-|

|---------------|------------|---------------|---------------------------------|
|---------------|------------|-------0-------|---------------------------------|
|-3-5-------3-5-|------------|-3-5-----------|-3-1-0---1-0-----0---------------|
|-----0-0-------|-0-0--6-----|-----0----0-0--|-------5-----5-3---5-3-2-5-3-2-0-|

|-----------------|-----------------|-----------------|-----------------|
|-----------------|-----------------|-----------------|-----------------|
|-----------------|-----------------|-----------------|-----------------|
|-0-0-0-0-0-0-0-0-|-0-0-0-0-0-0-0-0-|-2-2-2-2-2-2-2-2-|-2-2-2-2-2-2-2-2-|

|-----------------|-----------------|-----------------|-----------------|
|-----------------|-----------------|-----------------|-----------------|
|-----------------|-----------------|-1-1-1-1-1-1-1-1-|-4-4-4-4-4-4-4-4-|
|-5-5-5-5-5-5-5-5-|-5-5-5-5-5-5-5-5-|-----------------|-----------------|

|-----------------|-----------------|-----------------|-----------------|
|-----------------|-----------------|-----------------|-----------------|
|-----------------|-----------------|-----------------|-----------------|
|-0-0-0-0-0-0-0-0-|-0-0-0-0-0-0-0-0-|-2-2-2-2-2-2-2-2-|-2-2-2-2-2-2-2-2-|

|-----------------|-----------------|-----------------|-----------------|
|-----------------|-----------------|-----------------|-----------------|
|-----------------|-----------------|-1-1-1-1-1-1-1-1-|-4-4-4-4-4-4-4-4-|
|-5-5-5-5-5-5-5-5-|-5-5-5-5-5-5-5-5-|-----------------|-----------------|

|---------------|------------|--------------|-----------------------------|
|---------------|------------|-------0------|-----------------------------|
|-3-5-------3-5-|------------|-3-5----------|--------0-1--3-1-0----0------|
|-----0-0-------|-0-0--6-----|-----0-----0--|-2-3--5-------------5---3--5-|

|---------------|------------|---------------|---------------------------------|
|---------------|------------|-------0-------|---------------------------------|
|-3-5-------3-5-|------------|-3-5-----------|-3-1-0---1-0-----0---------------|
|-----0-0-------|-0-0--6-----|-----0----0-0--|-------5-----5-3---5-3-2-5-3-2-0-|

|-----------------|-----------------|-----------------|-----------------|
|-----------------|-----------------|-----------------|-----------------|
|-----------------|-----------------|-----------------|-----------------|
|-0-0-0-0-0-0-0-0-|-0-0-0-0-0-0-0-0-|-2-2-2-2-2-2-2-2-|-2-2-2-2-2-2-2-2-|

|-----------------|-----------------|-----------------|-----------------|
|-----------------|-----------------|-----------------|-----------------|
|-----------------|-----------------|-1-1-1-1-1-1-1-1-|-0-0-0-0-0-0-0-0-|
|-5-5-5-5-5-5-5-5-|-5-5-5-5-5-5-5-5-|-----------------|-----------------|

|-----------------|-----------------|-----------------|-----------------|
|-----------------|-----------------|-----------------|-----------------|
|-----------------|-----------------|-----------------|-----------------|
|-0-0-0-0-0-0-0-0-|-0-0-0-0-0-0-0-0-|-2-2-2-2-2-2-2-2-|-2-2-2-2-2-2-2-2-|

|-----------------|-----------------|-----------------|-----------------|
|-----------------|-----------------|-----------------|-----------------|
|-----------------|-----------------|-1-1-1-1-1-1-1-1-|-4-4-4-4-4-4-4-4-|
|-5-5-5-5-5-5-5-5-|-5-5-5-5-5-5-5-5-|-----------------|-----------------|

|-------------|--------------|--------------|--------------|--------------|
|----0--------|--------------|--------------|--------------|--------------|
|-------------|--------------|--------------|--------------|--------------|
|-0-------0-0-|-0-0--0--0-0--|-2-2--2--2-2--|-2-2--2--2-2--|-5-5--5--5-5--|

|--------------|--------------|--------------|--------------|--------------|
|--------------|--------------|--------------|--------------|--------------|
|--------------|-1-1--1--1-1--|-4-4--4--4-4--|--------------|--------------|
|-5-5--5--5-5--|--------------|--------------|-0-0--0--0-0--|-0-0--0--0-0--|

|--------------|--------------|--------------|--------------|--------------|
|--------------|--------------|--------------|--------------|--------------|
|--------------|--------------|--------------|--------------|-1-1--1--1-1--|
|-2-2--2--2-2--|-2-2--2--2-2--|-5-5--5--5-5--|-5-5--5--5-5--|--------------|

|--------------|--------------|-------------|--------------|--------------|
|--------------|--------------|-------------|--------------|--------------|
|-4-4--4--4-4--|--------------|-------------|--------------|----0-1-0-----|
|--------------|-0---0-3-5-0--|--0-3-5-0----|-0---0-3-5-0--|--0--------3--|

|--------------|-------------|--------------|-----------------|-------------|
|--------------|-------------|--------------|-----------------|----0--------|
|--------------|-------------|--------------|-1-1-1-1-3-3-3-3-|-------------|
|-0---0-3-5-0--|--0-3-5-0----|-0---0-3-5-0--|-----------------|-0-------0-0-|

|--------------|--------------|--------------|--------------|--------------|
|--------------|--------------|--------------|--------------|--------------|
|--------------|--------------|--------------|--------------|--------------|
|-0-0--0--0-0--|-2-2--2--2-2--|-2-2--2--2-2--|-5-5--5--5-5--|-5-5--5--5-5--|

|--------------|--------------|--------------|--------------|--------------|
|--------------|--------------|--------------|--------------|--------------|
|-1-1--1--1-1--|-4-4--4--4-4--|--------------|--------------|--------------|
|--------------|--------------|-0-0--0--0-0--|-0-0--0--0-0--|-2-2--2--2-2--|

|--------------|--------------|--------------|--------------|--------------|
|--------------|--------------|--------------|--------------|--------------|
|--------------|--------------|--------------|-1-1--1--1-1--|-4-4--4--4-4--|
|-2-2--2--2-2--|-5-5--5--5-5--|-5-5--5--5-5--|--------------|--------------|

|--------------|--------------|--------------|---------------|--------------|
|--------------|--------------|--------------|---------------|--------------|
|--------------|--------------|--------------|-----0-1-0-----|--------------|
|-0---0-3-5-0--|-0-0-3-5-0----|-0---0-3-5-0--|-0-0--------3--|-0---0-3-5-0--|

|--------------|---------------|-----------------|--------------|--------------|
|--------------|---------------|-----------------|--------------|--------------|
|--------------|---------------|-1-1-1-1-3-3-3-3-|--------------|--------------|
|-0-0-3-5-0----|-0---0-3-5-0-0-|-----------------|-0---0-3-5-0--|-0-0-3-5-0----|

|--------------|---------------|---------------|--------------|--------------|
|--------------|---------------|---------------|--------------|--------------|
|--------------|-----0-1-0-----|---------------|--------------|--------------|
|-0---0-3-5-0--|-0-0--------3--|-0---0-3-5-0-0-|-3-0-3-5-0----|-0---0-3-5-0--|

|-----------------|--------------|--------------|--------------|---------------|
|-----------------|--------------|--------------|--------------|---------------|
|-1-1-1-1-3-3-3-3-|--------------|--------------|--------------|-----0-1-0-----|
|-----------------|-0---0-3-5-0--|-0-0-3-5-0----|-0---0-3-5-0--|-0-0--------3--|

|---------------|--------------|--------------|-----------------|
|---------------|--------------|--------------|-----------------|
|---------------|--------------|--------------|-1-1-1-1-3-3-3-3-|
|-0---0-3-5-0-0-|-3-0-3-5-0----|-0---0-3-5-0--|-----------------|

|---------------|------------|---------------|-----------------------------|
|---------------|------------|-------0-------|-----------------------------|
|-3-5-------3-5-|------------|-3-5-----------|--------0-1--3-1-0----0------|
|-----0-0-------|-0-0--6-----|-----0----0-0--|-2-3--5-------------5---3--5-|

|---------------|------------|---------------|---------------------------------|
|---------------|------------|-------0-------|---------------------------------|
|-3-5-------3-5-|------------|-3-5-----------|-3-1-0---1-0-----0---------------|
|-----0-0-------|-0-0--6-----|-----0----0-0--|-------5-----5-3---5-3-2-5-3-2-0-|

|---------------|------------|--------------|-----------------------------|
|---------------|------------|-------0------|-----------------------------|
|-3-5-------3-5-|------------|-3-5----------|--------0-1--3-1-0----0------|
|-----0-0-------|-0-0--6-----|-----0-----0--|-2-3--5-------------5---3--5-|

|---------------|------------|--------------|---------------------------------|
|---------------|------------|-------0------|---------------------------------|
|-3-5-------3-5-|------------|-3-5----------|-3-1-0---1-0-----0---------------|
|-----0-0-------|-0-0--6-----|-----0-----0--|-------5-----5-3---5-3-2-5-3-2-0-|

|---------------------------------|---------------------------------|
|---------------------------------|-2-0-----------------------------|
|-5-3-1-0-3-1-0---1-0-----0-------|-----3-1-5-3-1-0-3-1-0---0-------|
|---------------5-----5-3---5-3-2-|-----------------------5---5-3-2-|

|--------------------------|---------------------|----------|
|--------------------------|---------------------|----------|
|----------------0---------|---------------------|----------|
|-5-3-2-0-3-2-0-------1----|-1----1--------------|-0~~~~~~~-|
						
# Artist Title Tabdesignator