Dream Theater

Endless Sacrifice


							
Tuning (low to high): D E A D G C
tuned down one
whole step, John Myung simply raises his sixth string up a step
from B to D.
 Guitar Intro
  Q=87
 4/4          6/4

  Wx3          W.
|------------|-------|
|------------|-------|
|------------|-------|
|------------|-------|
|------------|-------|
|------------|-------|

 4/4

   a  H.       +E   E    H      Q   E  E   H.      +E  E
|---------------------|------------------|---------------|
|---------------------|------------14-12-|---------------|
|-10h12-------(12)----|------------------|-0-------(0)---|
|------------------12-|-13----/15--------|-------------8-|
|---------------------|------------------|---------------|
|---------------------|------------------|---------------|

                    3/4

  H    E  E  +E  E    E  E  S  S  E  E  E
|------------------|-------13h14-13-------||
|--------10-(10)-9-|----12----------15-14-||
|------------------|-11-------------------||
|------------------|----------------------||
|-6----------------|----------------------||
|------------------|----------------------||

 Keyboard Solo
 4/4                                6/4

  W          H    Q  Q    W          Q.   +E   H    Q  E E
|----------|------------|----------|-----------------------|
|----------|------------|----------|-----------------------|
|----------|------------|----------|-----------------------|
|----------|------------|----------|-----------------------|
|----------|-6----7--5--|----------|-6----(6)\-1----0--6-5-|
|-0--------|------------|-0--------|-----------------------|

 4/4                                                 3/4

  W          H     H      W          Q.   +E   H       H    E E
|----------|------------|----------|----------------|-----------||
|----------|------------|----------|----------------|-----------||
|----------|------------|----------|----------------|-----------||
|----------|------------|----------|----------------|-----------||
|----------|-6----/8----|----------|-6----(6)\-1----|-/5----6-5-||
|-0--------|------------|-0--------|----------------|-----------||

   Verse 1
   4/4                                6/4

    W          H    Q  Q    W          Q.   +E   H    Q  E E
||-----------|------------|----------|-------------------------|
||o----------|------------|----------|-------------------------|
||-----------|------------|----------|-------------------------|
||-----------|------------|----------|-------------------------|
||o----------|-6----7--5--|----------|-6----(6)\-1----0--6-5---|
||--0--------|------------|-0--------|-------------------------|

 4/4                                                 3/4

  W          H     H      W          Q.   +E   H       H    E E
|----------|------------|----------|----------------|------------||
|----------|------------|----------|----------------|-----------o||
|----------|------------|----------|----------------|------------||
|----------|------------|----------|----------------|------------||
|----------|-6----/8----|----------|-6----(6)\-1----|-/5----6-5-o||
|-0--------|------------|-0--------|----------------|------------||

 Pre-Chorus
 4/4

|-----------------------|----------------|
|-----------------------|----------------|
|-----------------------|----------------|
|----------/10----(10)\-|-7----6----(6)\-|
|-3----(3)--------------|----------------|
|-----------------------|----------------|

                                5/4

  E   E  +E   E  S  S  E  E  E   Q.   +E   H.
|------------------------------|-----------------|
|------------------------------|-----------------|
|------------------------------|-----------------|
|---/10-(10)-10-10s12s10-10----|-----------------|
|-3-------------------------10-|-8----(8)\-2-----|
|------------------------------|-----------------|

 4/4

|-----------------------|----------------|
|-----------------------|----------------|
|-----------------------|----------------|
|----------/10----(10)\-|-7----8----(8)\-|
|-3----(3)--------------|----------------|
|-----------------------|----------------|

  E   E  +E   E  S  S  E  E E   Q.   E Q.   E    Q.   E Q  Q
|-----------------------------|----------------|---------------||
|-----------------------------|----------------|---------------||
|-----------------------------|----------------|---------------||
|---/10-(10)-10-10s12s10-10-8-|-7----7-6----6\-|-1----1-3--3---||
|-3---------------------------|----------------|---------------||
|-----------------------------|----------------|---------------||

   Chorus
    Q=90
    E. S S S E +S  S S S E E   E. S S S E +S  S S S E  E
||---------------------------|---------------------------|
||o--------------------------|---------------------------|
||---------------------------|---------------------------|
||---------------------------|---------------------------|
||o--------------------------|------------------5h6-5\---|
||--0--0-3h5-0-(0)-0-3h5-0---|-0--0-3h5-0-(0)-0--------2-|

  E. S S S E +S  S S S E E   E. S S S E S S S S S S S S
|--------------------------|-----------------------------||
|--------------------------|----------------------------o||
|--------------------------|-----------------------------||
|--------------------------|------------1-1-1-1-3-3-3-3--||
|--------------------------|----------------------------o||
|-0--0-3h5-0-(0)-0-3h5-0---|-0--0-3h5-0------------------||

   Interlude
    W          W          H.      +E  E   H    Q.   +E
||-----------|----------|---------------|------------------||
||o----------|----------|---------------|-----------------o||
||-----------|----------|---------------|------------------||
||-----------|----------|---------------|------------------||
||o----------|----------|-3-------(3)-5-|-6----9----(9)\--o||
||--0--------|-2--------|---------------|------------------||

   Verse 2
   4/4                                6/4

    W          H    Q  Q    W          Q.   +E   H    Q  E E
||-----------|------------|----------|-------------------------|
||o----------|------------|----------|-------------------------|
||-----------|------------|----------|-------------------------|
||-----------|------------|----------|-------------------------|
||o----------|-6----7--5--|----------|-6----(6)\-1----0--6-5---|
||--0--------|------------|-0--------|-------------------------|

 4/4                                                 3/4

  W          H     H      W          Q.   +E   H       H    E E
|----------|------------|----------|----------------|------------||
|----------|------------|----------|----------------|-----------o||
|----------|------------|----------|----------------|------------||
|----------|------------|----------|----------------|------------||
|----------|-6----/8----|----------|-6----(6)\-1----|-/5----6-5-o||
|-0--------|------------|-0--------|----------------|------------||

 Pre-Chorus
 4/4

|-----------------------|----------------|
|-----------------------|----------------|
|-----------------------|----------------|
|----------/10----(10)\-|-7----6----(6)\-|
|-3----(3)--------------|----------------|
|-----------------------|----------------|

                                5/4

  E   E  +E   E  S  S  E  E  E   Q.   +E   H.
|------------------------------|-----------------|
|------------------------------|-----------------|
|------------------------------|-----------------|
|---/10-(10)-10-10s12s10-10----|-----------------|
|-3-------------------------10-|-8----(8)\-2-----|
|------------------------------|-----------------|

 4/4

|-----------------------|----------------|
|-----------------------|----------------|
|-----------------------|----------------|
|----------/10----(10)\-|-7----8----(8)\-|
|-3----(3)--------------|----------------|
|-----------------------|----------------|

  E   E  +E   E  S  S  E  E E   Q.   E Q.   E    E E +E  E E E E E
|-----------------------------|----------------|--------------------||
|-----------------------------|----------------|--------------------||
|-----------------------------|----------------|--------------------||
|---/10-(10)-10-10s12s10-10-8-|-7----7-6----6\-|-1-1-(1)-1-3-3-3-3--||
|-3---------------------------|----------------|--------------------||
|-----------------------------|----------------|--------------------||

   Chorus
    Q=90
    E. S S S E +S  S S S E E   E. S S S E +S  S S S E  E
||---------------------------|---------------------------|
||o--------------------------|---------------------------|
||---------------------------|---------------------------|
||---------------------------|---------------------------|
||o--------------------------|------------------5h6-5\---|
||--0--0-3h5-0-(0)-0-3h5-0---|-0--0-3h5-0-(0)-0--------2-|

  E. S S S E +S  S S S E E   E. S S S E S S S S S S S S  4x
|--------------------------|-----------------------------||
|--------------------------|----------------------------o||
|--------------------------|-----------------------------||
|--------------------------|------------1-1-1-1-3-3-3-3--||
|--------------------------|----------------------------o||
|-0--0-3h5-0-(0)-0-3h5-0---|-0--0-3h5-0------------------||

  4.                           Q=156
                       |-3-|

  E. S S S E S T T S S E E E   W          +W           +W
|----------------------------|----------|------------|--------||
|----------------------------|----------|------------|--------||
|----------------------------|----------|------------|--------||
|------------1-1-1-1-1-3-3-3-|----------|------------|--------||
|----------------------------|----------|------------|--------||
|-0--0-3h5-0-----------------|-0--------|-(0)--------|-(0)----||

 Instrumental Break
                                                |--3--|

  +W           +W            H     H      H     E  E  E  E E
|------------|------------|-------------|---------------------|
|------------|------------|-------------|---------------------|
|------------|------------|-------------|---------------------|
|------------|------------|-------------|---------------------|
|------------|------------|-------------|------10-10-10-10----|
|-(0)--------|-(0)--------|-12\---------|---------------------|

  H    Q  Q    H     S  S  S  S  Q     W          W
|------------|-----------------------|----------|------||
|------------|-----------------------|----------|------||
|------------|------12-12-12-12------|----------|------||
|------------|-----------------------|----------|------||
|------------|------------------10\--|----------|------||
|------0-----|-----------------------|----------|------||

    S S E E E Q  S S E   S S E E E S S E Q    8x
||---------------------|----------------------||
||o--------------------|---------------------o||
||---------------------|----------------------||
||---------------------|----------------------||
||o-----------6--------|-----------------4---o||
||--3-2-0-0-0----3-2-0-|-3-2-0-0-0-6-5-0------||

    E E S S E E E Q    E E S S E E E Q    E E S S E E E Q    E E S S E E E Q
||-------------------|------------------|------------------|------------------||
||o------------------|------------------|------------------|-----------------o||
||-------------------|------------------|------------------|------------------||
||-------------------|------------------|------------------|------------------||
||o-0-0-3-1-0-0-0-6--|-0-0-3-1-0-6---4--|-0-0-3-1-0-0-0-6--|-0-0-3-1-0-6-5-4-o||
||-------------------|------------------|------------------|------------------||

     E  E  E E E  E E E   E E E E  E E Q
||----------------------|-----------------|
||o---------------------|-----------------|
||-----12--------10-----|-8------------8--|
||--10----10-8-7----7-6-|---6--------8----|
||o---------------------|-----8-9-10------|
||----------------------|-----------------|

 7/8                 4/4

   E  E  E E E  E E   E  E  E  E  E  E  E  E
|-------------------|-------------------------||
|-------------------|------------------------o||
|----12--------10---|------11----12-----------||
|-10----10-8-7------|---10----12----------12--||
|-----------------8-|-9-------------10-11----o||
|-------------------|-------------------------||

   7/8             4/4               7/8             4/4

    E E E E E E E   E E E E E E E E   E E E E E E E   E E E E E E S  E.
||----------------|---------------4-|-------------2-|-----4-2-------10\--||
||o---------------|-----2-------3---|-----5-3-------|---0---------9-----o||
||------3-2-----5-|-------5---0-----|---2-------3---|-----------8--------||
||----0-------1---|---3-------------|---------------|--------------------||
||o-3-------3-----|-3-------3-------|-3-------3-----|-3-------3---------o||
||----------------|-----------------|---------------|--------------------||

 11/8                    4/4                     5/4

  E E E E E E E E E E E   E  E  E E  E  E S S E   E E E E E E E E E E
|-----------------------|-----------------------|---------------------|
|-----------------------|-----------------------|-----------------3-5s|
|-4-5-----6-7-----8-----|-9-10------11----------|-------------4-6-----|
|-----5-------7-----8---|------10------11-------|---------5-7---------|
|-------3-------5-----6-|---------8-------9s3---|-----6-8-------------|
|-----------------------|-----------------------|-4-6-----------------|

 3/4
                                           |--3--|  |--3--|  |--3--|

   E  E  E  E  E  E    E  E  E  E  E  E    E  E  E  E  E  E  E  E  E
|-22----------------|-19----------------|-15-------------14-13-------||
|----19-20-21-17----|----17-18-19-15----|----16-------15-------14----||
|----------------18-|----------------16-|-------17-16-------------15-||
|-------------------|-------------------|----------------------------||
|-------------------|-------------------|----------------------------||
|-------------------|-------------------|----------------------------||

 4/4

   E  E  S  S  E  E  E  Q     E  E  S  S  E  E  E  Q
|--------------------------|--------------------------|
|--------------------------|--------------------------|
|--------------------------|--------------------------|
|----------------------13--|----------------13----11--|
|-12-12-15-13-12-12-12-----|-12-12-15-13-12----12-----|
|--------------------------|--------------------------|

   E  E  S  S  E  E  E  Q     E  E  S  S  E  E  E  Q
|--------------------------|-------------------------|
|--------------------------|-------------------------|
|--------------------------|-------------------------|
|----------------------13--|----------------13-12-11-|
|-12-12-15-13-12-12-12-----|-12-12-15-13-12----------|
|--------------------------|-------------------------|

  E E S S E E E Q    E E S S E E E Q    E E S S E E E Q    E E S S E E E E E
|------------------|------------------|------------------|-------------------||
|------------------|------------------|------------------|-------------------||
|------------------|------------------|------------------|-------------------||
|------------------|------------------|------------------|-------------------||
|-0-0-3-1-0-0-0-6--|-0-0-3-1-0-6---4--|-0-0-3-1-0-0-0-6--|-0-0-3-1-0-6-5-4---||
|------------------|------------------|------------------|-------------------||

 Keyboard Doodle
                                  3/4

  W          W          W          H.
|----------|----------|----------|-------||
|----------|----------|----------|-------||
|----------|----------|----------|-------||
|----------|----------|----------|-------||
|----------|----------|----------|-------||
|----------|----------|----------|-------||

   Keyboard & Guitar Solos
   4/4

    S S E E E Q  S S E   S S E E E S S E Q
||---------------------|--------------------|
||o--------------------|--------------------|
||---------------------|--------------------|
||---------------------|--------------------|
||o-----------6--------|-----------------4--|
||--3-2-0-0-0----3-2-0-|-3-2-0-0-0-6-5-0----|

  S S E E E Q  S S E   S S E E E S S E Q
|--------------------|-------------------|
|--------------------|-------------------|
|--------------------|-------------------|
|--------------------|-------------------|
|-----------6--------|-----------------4-|
|-3-2-0-0-0----3-2-0-|-3-2-0-0-0-6-5-0---|

  S S E E E Q  S S E   S S E E E S S E Q
|--------------------|--------------------|
|--------------------|--------------------|
|--------------------|--------------------|
|--------------------|--------------------|
|-----------6--------|-----------------4--|
|-3-2-0-0-0----3-2-0-|-3-2-0-0-0-6-5-0----|

  S S E E E Q  S S E   S S E E E S S E Q
|--------------------|---------------------|
|--------------------|---------------------|
|--------------------|---------------------|
|--------------------|---------------------|
|-----------6--------|-----------------4---|
|-3-2-0-0-0----3-2-0-|-3-2-0-0-0-6-5-0-----|

  E E S S E E E Q    E E S S E E E Q    E E S S E E E Q    E E S S E E E E E
|------------------|------------------|------------------|-------------------|
|------------------|------------------|------------------|-------------------|
|------------------|------------------|------------------|-------------------|
|------------------|------------------|------------------|-------------------|
|-0-0-3-1-0-0-0-6--|-0-0-3-1-0-6---4--|-0-0-3-1-0-0-0-6--|-0-0-3-1-0-6-5-4---|
|------------------|------------------|------------------|-------------------|

  E E S S E E E Q    E E S S E E E Q    E E S S E E E Q    E E S S E E E E E  3x
|------------------|------------------|------------------|--------------------||
|------------------|------------------|------------------|-------------------o||
|------------------|------------------|------------------|--------------------||
|------------------|------------------|------------------|--------------------||
|-0-0-3-1-0-0-0-6--|-0-0-3-1-0-6---4--|-0-0-3-1-0-0-0-6--|-0-0-3-1-0-6-5-4---o||
|------------------|------------------|------------------|--------------------||

 Guitar & Keyboard Unison
  Q  Q  Q  E E   Q  Q  H      Q  Q  Q  E.  S    S  S  S  S  H     Q
|--------------|------------|----------------|-----------------------|
|--------------|------------|----------------|-----------------------|
|--------------|------------|----------------|-12-12-12-12-----------|
|--------------|------------|----------------|-----------------------|
|--------------|------------|-------------10-|-------------10\-------|
|-0----------0-|-0----------|-0--------------|-----------------------|

  S S S S S S S S S S S S S S S S   S S S S S S S S S S S S S S S S
|---------------------------------|---------------------------------|
|---------------------------------|---------------------------------|
|---------------------------------|---------------------------------|
|---------------------------------|---------------------------------|
|---------------------------------|---------------------------------|
|-2-2-2-2-2-2-2-2-2-2-2-2-2-2-2-2-|-2-2-2-2-2-2-2-2-2-2-2-2-2-2-2-2-|

  S S S S S S S S S S S S S S S S   S S S S S S S S S S S S S S S S
|---------------------------------|---------------------------------|
|---------------------------------|---------------------------------|
|---------------------------------|---------------------------------|
|---------------------------------|---------------------------------|
|-3-3-3-3-3-3-3-3-3-3-3-3-3-3-3-3-|-3-3-3-3-3-3-3-3-3-3-3-3-3-3-3-3-|
|---------------------------------|---------------------------------|

  S S S S S S S S S S S S S S S S   S S S S S S S S S S S S S S S S
|---------------------------------|---------------------------------|
|---------------------------------|---------------------------------|
|---------------------------------|---------------------------------|
|---------------------------------|---------------------------------|
|---------------------------------|-3-3-3-3-3-3-3-3-6-6-6-6-6-6-6-6-|
|-0-0-0-0-0-0-0-0-2-2-2-2-2-2-2-2-|---------------------------------|

  Q=97
 2/4    4/4

  H      +E  E Q  H
|------|---------------||
|------|---------------||
|------|---------------||
|------|---------------||
|-5----|-(5)-----------||
|------|---------------||

    S  S S S +S  S S  S S E S Q
||-------------------------------|
||o------------------------------|
||-------------------------------|
||-------------------------------|
||o-8h10-----------8h10-------4--|
||-------0-0-(0)-0------0-0-0----|

                   |-----6-----| |-----6-----|

  S  S S S +S  S E S S  S S S  S S S  S S S  S
|-----------------------------------------------|
|-----------------------------------------------|
|-------------------------7-8-10-7-8----7-------|
|------------------7-8-10------------10---8-10--|
|-8h10------------------------------------------|
|------0-0-(0)-0-0------------------------------|

  S  S S S +S  S S  S S E S Q
|------------------------------|
|------------------------------|
|------------------------------|
|------------------------------|
|-8h10-----------8h10-------4--|
|------0-0-(0)-0------0-0-0----|

  S  S S S +S  S E T  T T T T T T T T T T T T T T T
|----------------------------------------------------||
|---------------------------------------------------o||
|------------------7-10-8-7-5-8-7-5-3-7-5-3-2-5-3-2--||
|----------------------------------------------------||
|-8h10----------------------------------------------o||
|------0-0-(0)-0-0-----------------------------------||

    S S S S S S S S S S S S S S S S   S S S S S S S S S S S S S S S S
||----------------------------------|----------------------------------|
||o---------------------------------|----------------------------------|
||----------------------------------|----------------------------------|
||----------------------------------|----------------------------------|
||o---------------------------------|----------------------------------|
||--0-0-0-0-0-0-0-0-0-0-0-0-0-0-0-0-|-2-2-2-2-2-2-2-2-2-2-2-2-2-2-2-2--|

  S S S S S S S S S S S S S S S S   S S S S S S S S  S S S S S S S S
|---------------------------------|------------------------------------||
|---------------------------------|-----------------------------------o||
|---------------------------------|------------------------------------||
|---------------------------------|------------------------------------||
|-3-3-3-3-3-3-3-3-3-3-3-3-3-3-3-3-|-6-6-6-6-6-6-6-6-/9-9-9-9-9-9-9-9\-o||
|---------------------------------|------------------------------------||

                                                  |-----6-----| |-----6-----|

  S  S S S +S  S S  S S E S Q    S  S S S +S  S E S S  S S S  S S S  S S S  S
|------------------------------|----------------------------------------------|
|------------------------------|----------------------------------------------|
|------------------------------|-------------------------7-8-10-7-8----7------|
|------------------------------|------------------7-8-10------------10---8-10-|
|-8h10-----------8h10-------4--|-8h10-----------------------------------------|
|------0-0-(0)-0------0-0-0----|------0-0-(0)-0-0-----------------------------|

  S  S S S +S  S S  S S E S Q
|------------------------------|
|------------------------------|
|------------------------------|
|------------------------------|
|-8h10-----------8h10-------4--|
|------0-0-(0)-0------0-0-0----|

  S  S S S +S  S E T  T T T T T T T T T T T T T T T
|---------------------------------------------------||
|---------------------------------------------------||
|------------------7-10-8-7-5-8-7-5-3-7-5-3-2-5-3-2-||
|---------------------------------------------------||
|-8h10----------------------------------------------||
|------0-0-(0)-0-0----------------------------------||

    S S S S S S S S S S S S S S S S   S S S S S S S S S S S S S S S S
||----------------------------------|----------------------------------|
||o---------------------------------|----------------------------------|
||----------------------------------|----------------------------------|
||----------------------------------|----------------------------------|
||o---------------------------------|----------------------------------|
||--0-0-0-0-0-0-0-0-0-0-0-0-0-0-0-0-|-2-2-2-2-2-2-2-2-2-2-2-2-2-2-2-2--|

                                                    |----6----| |----6----|

  S S S S S S S S S S S S S S S S   S S S S S S S S S S S S S S S S S S S S
|---------------------------------|------------------------------------------||
|---------------------------------|-----------------------------------------o||
|---------------------------------|------------------------------------------||
|---------------------------------|------------------------------------------||
|-3-3-3-3-3-3-3-3-3-3-3-3-3-3-3-3-|-6-6-6-6-6-6-6-6-5-5-5-5-5-5-5-5-5-5-5-5-o||
|---------------------------------|------------------------------------------||

  S S S S S S S S  S S S S S S S S
|-----------------------------------||
|-----------------------------------||
|-----------------------------------||
|-----------------------------------||
|-6-6-6-6-6-6-6-6-/9-9-9-9-9-9-9-9\-||
|-----------------------------------||

   Verse 3
    S S S S +S  S E S S E S S E   S S S S +S  S E S S E S S E
||------------------------------|-----------------------------|
||o-----------------------------|-----------------------------|
||------------------------------|-----------------------------|
||------------------------------|-----------------------------|
||o-----------------------------|-----------------------------|
||--0-0-0-0-(0)-0-0-0-0-0-0-0-0-|-2-2-2-2-(2)-2-2-2-2-2-2-2-2-|

  S S S S +S  S E S S E S S E   S S S S +S  S E E S S +S  S E
|-----------------------------|----------------------------------||
|-----------------------------|---------------------------------o||
|-----------------------------|----------------------------------||
|-----------------------------|----------------------------------||
|-3-3-3-3-(3)-3-3-3-3-3-3-3-3-|-6-6-6-6-(6)-6-6-9-9-9-(9)-9-9\--o||
|-----------------------------|----------------------------------||

  E. S S S E +S  S S S E E   E. S S S E +S  S S S E  E
|--------------------------|---------------------------|
|--------------------------|---------------------------|
|--------------------------|---------------------------|
|--------------------------|---------------------------|
|--------------------------|------------------5h6-5\---|
|-0--0-3h5-0-(0)-0-3h5-0---|-0--0-3h5-0-(0)-0--------2-|

  E. S S S E +S  S S S E E   E. S S S E S S S S S S S S
|--------------------------|----------------------------||
|--------------------------|----------------------------||
|--------------------------|----------------------------||
|--------------------------|------------1-1-1-1-3-3-3-3-||
|--------------------------|----------------------------||
|-0--0-3h5-0-(0)-0-3h5-0---|-0--0-3h5-0-----------------||

   Verse 4
    S S S S +S  S E S S E S S E   S S S S +S  S E S S E S S E
||------------------------------|-----------------------------|
||o-----------------------------|-----------------------------|
||------------------------------|-----------------------------|
||------------------------------|-----------------------------|
||o-----------------------------|-----------------------------|
||--0-0-0-0-(0)-0-0-0-0-0-0-0-0-|-2-2-2-2-(2)-2-2-2-2-2-2-2-2-|

  S S S S +S  S E S S E S S E   S S S S +S  S E E S S +S  S E
|-----------------------------|----------------------------------||
|-----------------------------|---------------------------------o||
|-----------------------------|----------------------------------||
|-----------------------------|----------------------------------||
|-3-3-3-3-(3)-3-3-3-3-3-3-3-3-|-6-6-6-6-(6)-6-6-9-9-9-(9)-9-9\--o||
|-----------------------------|----------------------------------||

  E. S S S E +S  S S S E E   E. S S S E +S  S S S E  E
|--------------------------|---------------------------|
|--------------------------|---------------------------|
|--------------------------|---------------------------|
|--------------------------|---------------------------|
|--------------------------|------------------5h6-5\---|
|-0--0-3h5-0-(0)-0-3h5-0---|-0--0-3h5-0-(0)-0--------2-|

  E. S S S E +S  S S S E E   E. S S S E S S S S S S S S
|--------------------------|----------------------------|
|--------------------------|----------------------------|
|--------------------------|----------------------------|
|--------------------------|------------1-1-1-1-3-3-3-3-|
|--------------------------|----------------------------|
|-0--0-3h5-0-(0)-0-3h5-0---|-0--0-3h5-0-----------------|

   Chorus
    E. S S S E +S  S S S E E   E. S S S E +S  S S S E  E
||---------------------------|---------------------------|
||o--------------------------|---------------------------|
||---------------------------|---------------------------|
||---------------------------|---------------------------|
||o--------------------------|------------------5h6-5\---|
||--0--0-3h5-0-(0)-0-3h5-0---|-0--0-3h5-0-(0)-0--------2-|

  E. S S S E +S  S S S E E   E. S S S E S S S S S S S S
|--------------------------|-----------------------------||
|--------------------------|----------------------------o||
|--------------------------|-----------------------------||
|--------------------------|------------1-1-1-1-3-3-3-3--||
|--------------------------|----------------------------o||
|-0--0-3h5-0-(0)-0-3h5-0---|-0--0-3h5-0------------------||

   Outro
    S  S S S +S  S S  S S E S Q
||-------------------------------|
||o------------------------------|
||-------------------------------|
||-------------------------------|
||o-8h10-----------8h10-------4--|
||-------0-0-(0)-0------0-0-0----|

                   |-----6-----| |-----6-----|

  S  S S S +S  S E S S  S S S  S S S  S S S  S
|-----------------------------------------------|
|-----------------------------------------------|
|-------------------------7-8-10-7-8----7-------|
|------------------7-8-10------------10---8-10--|
|-8h10------------------------------------------|
|------0-0-(0)-0-0------------------------------|

  S  S S S +S  S S  S S E S Q
|------------------------------|
|------------------------------|
|------------------------------|
|------------------------------|
|-8h10-----------8h10-------4--|
|------0-0-(0)-0------0-0-0----|

  S  S S S +S  S E T  T T T T T T T T T T T T T T T
|------------------------------------------------------||
|-----------------------------------------------------o||
|------------------7-10-8-7-5-8-7-5-3-7-5-3-2-5-3-2----||
|------------------------------------------------------||
|-8h10------------------------------------------------o||
|------0-0-(0)-0-0-------------------------------------||

 2/4

  T  T  T T T  T T T T T T T T T T T
|------------------------------------|
|------------------------------------|
|-8-12-10-8-7-10-8-7-5-8-7-5-3-7-5-3-|
|------------------------------------|
|------------------------------------|
|------------------------------------|

   T  T  T  T  T  T  T  T T  T  T T T  T T T
|---------------------------------------------|
|---------------------------------------------|
|-12-15-14-12-10-14-12-10-8-12-10-8-7-10-8-7--|
|---------------------------------------------|
|---------------------------------------------|
|---------------------------------------------|

                                4/4

                                      TP       TP
  T T T T T T T T E e   e e Q    H    H        H     Q.    +E     Q  Q  H
|---------------------|--------|-----------|--------------------|------------*|
|---------------------|--------|-----------|--------------------|------------*|
|-5-8-7-5-3-7-5-3-----|--------|-----------|--------------------|------------*|
|-----------------0---|--------|-----------|--------------------|------------*|
|---------------------|--------|-----------|-/10----10----(10)\-|------------*|
|-------------------1-|-1-1----|-0----0----|--------------------|-0----------*|
						
# Artist Title Tabdesignator