Dream Theater

Dance Of Eternity


							
Gtr I (B E A D G C) - '6 String Bass'
Q=60                  Q=104
4/4

W          W          W          W
|----------|----------|----------|------|
|----------|----------|----------|------|
|----------|----------|----------|------|
|----------|----------|----------|------|
|----------|----------|----------|------|
|----------|----------|----------|------|
|-3-|           |-3-|     |-3-|           |-3-|

S S S e E e E e S S S E   S S S e E e E e S S S E
|-------------------------|-------------------------|
|-------------------------|-------------------------|
|-------------------------|-------------------------|
|-------------------------|-------------------------|
|-------------------------|-------------------------|
|-3-3-3-3-x-3-x-3-3-3-3-3-|-3-3-3-3-x-3-x-3-3-3-3-3-|
|-3-|           |-3-|     |-3-|           |-3-|

S S S e E e E e S S S E   S S S e E e E e S S S E
|-------------------------|-------------------------|
|-------------------------|-------------------------|
|-------------------------|-------------------------|
|-------------------------|-------------------------|
|-------------------------|-------------------------|
|-3-3-3-3-x-3-x-3-3-3-3-3-|-3-3-3-3-x-3-x-3-3-3-3-3-|
|-3-|           |-3-|     |-3-|           |-3-|

S S S e E e E e S S S E   S S S e E e E e S S S E
|-------------------------|-------------------------|
|-------------------------|-------------------------|
|-------------------------|-------------------------|
|-------------------------|-------------------------|
|-------------------------|-------------------------|
|-3-3-3-3-x-3-x-3-3-3-3-3-|-3-3-3-3-x-3-x-3-3-3-3-3-|
|-3-|           |-3-|     |-3-|     |-3-| |-3-|   |-3-|

S S S e E e E e S S S E   S S S e E S S S S S S E S S S e
|-------------------------|---------------------------------|
|-------------------------|---------------------------------|
|-------------------------|---------------------------------|
|-------------------------|---------------------------------|
|-------------------------|---------------------------------|
|-3-3-3-3-x-3-x-3-3-3-3-3-|-3-3-3-3---3-3-3-3-3-3-3-3-3-3-3-|

Q=124
7/8           3/4

|---------------|-------------|-------|
|---------------|-------------|-------|
|---------------|-------------|-------|
|---------------|-------------|-------|
|-3----(3)-4----|-3----(3)-1--|-0-----|
|---------------|-------------|-------|
4/4             7/8

|-----------|---------------|-------------|
|-----------|---------------|-------------|
|-----------|---------------|-------------|
|-----------|---------------|-------------|
|------2----|-3----(3)-4----|-3----(3)-1--|
|-1---------|---------------|-------------|
3/4                   4/4

H.        Q.   Q.     E  E  E  E E E  E E
|---------|-----------|---------------------|
|---------|-----------|---------------------|
|---------|-----------|--------------6------|
|---------|-----------|------10----8---10-8-|
|-0-------|-----------|---10----10----------|
|---------|-1----4----|-8-------------------|
7/8                  6/8           7/8               4/4

E E  E S S  E E E   E E E E E E    E E  E E E E E   E  E  E  E E E  E E
|--------------------|-------------|-----------------|----------------------|
|--------------------|-------------|-----------------|----------------------|
|--------------------|-----------9-|-10----------6---|--------------6-------|
|---------6-8-10-----|-----7-8-7---|------10---------|------10----8---10-8--|
|-10---10--------8---|---7---------|----8----9-------|---10----10-----------|
|----8-------------6-|-5-----------|-----------7---9-|-8--------------------|
7/8                  6/8

E E  E S S  E E E   E E E E E E
|--------------------|-------------|
|--------------------|-------------|
|--------------------|-----------9-|
|---------6-8-10-----|-----7-8-7---|
|-10---10--------8---|---7---------|
|----8-------------6-|-5-----------|
7/8                     13/16
|--3--|

E S  S  S  E E E E E   E S E S S S S S S S S
|-----------------------|------------------------|
|-----------------------|------------------------|
|-10--------------------|-----------------3-5-6--|
|------------10-6-------|-------------3-5--------|
|----8-10-11--------6-4-|-3-4-3-4-3-4------------|
|-----------------4-----|------------------------|
15/16

E S E S E S S S S S S S
|-------------------------|
|-------------------------|
|-------------------------|
|-----------5-3-----------|
|-3-4-3-4-3-----4-3-------|
|-------------------6-4-3-|
17/16                       14/16

E S E S E E S S S S S S S   E S E S S S S S S S S S
|---------------------------|-------------------------|
|---------------------------|-------------------------|
|---------------------3-5-6-|-------------------------|
|-----------------3-5-------|-------------5-3---------|
|-3-4-3-4-3-4-3-4-----------|-3-4-3-4-3-4-----4-3-----|
|---------------------------|---------------------6-4-|
4/4             7/8           3/4

|---------------|-------------|-------|
|---------------|-------------|-------|
|---------------|-------------|-------|
|---------------|-------------|-------|
|---------------|-------------|-------|
|-3----(3)-4----|-3----(3)-1--|-0-----|
4/4

Q.   E +Q     H    +E  Q.
|-------------|---------------|
|-------------|---------------|
|-------------|---------------|
|-------------|---------------|
|-3-----------|---------------|
|------2-(2)--|-3----(3)-4----|
7/8            4/4

|-------------||------|
|-------------||------|
|-------------||------|
|----------3--||------|
|-------------||-4----|
|-3----(3)----||------|
5/4             17/16                       15/16

Q  Q  Q  H      E S E S E E S S S S S S S   E S E S E S S S S S S S
|---------------|---------------------------|-------------------------|
|---------------|---------------------------|-------------------------|
|---------------|---------------------3-5-6-|-------------------------|
|---------------|-----------------3-5-------|-----------5-3-----------|
|-3-------------|-3-4-3-4-3-4-3-4-----------|-3-4-3-4-3-----4-3-------|
|---------------|---------------------------|-------------------6-4-3-|
13/16                   4/4               6/8

E S E S S S S S S S S   Q.   E +Q   Q     S S S  e S  e  E  e   W
|-----------------------|----------------||---------------------|------|
|-----------------------|----------------||-----9-16------10-12-|------|
|-----------------3-5-6-|----------------||----------7-10-------|------|
|-------------3-5-------|----------------||---7-----------------|------|
|-3-4-3-4-3-4-----------|-6----4-(4)-----||-0-------------------|------|
|-----------------------|-------------3--||---------------------|------|

Q=120
5/4                               2/4

S S S S S S S S S S S S E E E E   S S S S S S S S
|---------------------------------|-----------------|
|---------------------------------|-------7-3-------|
|-------4-4-4-------4-4-4---4-5---|-----6-----4-----|
|-------------------------4-----3-|---5---------5---|
|-2-2-2-------2-2-2---------------|-4-------------6-|
|---------------------------------|-----------------|
5/4                               2/4

S S S S S S S S S S S S E E E E   S S S S S S S S
|---------------------------------|-----------------|
|---------------------------------|-7-----3---------|
|-------4-4-4-------4-4-4---4-5---|---6-----4-5-----|
|-------------------------4-----3-|-----5---------4-|
|-2-2-2-------2-2-2---------------|-------------3---|
|---------------------------------|-----------------|
5/4                               2/4

S S S S S S S S S S S S E E E E   S S S S S S S S
|---------------------------------|-----------------|
|---------------------------------|-------7---------|
|-------4-4-4-------4-4-4---4-5---|-----8-----6-----|
|-------------------------4-----3-|---9-----7---5---|
|-2-2-2-------2-2-2---------------|-6-------------4-|
|---------------------------------|-----------------|
5/4                                5/8
|----6----|   |----6----|

S S S S S S S S S S S S E E E E    S S S S S S E S S S S S S
|---------------------------------||----------------------------|
|---------------------------------||----------------------------|
|-------4-4-4-------4-4-4---4-5---||----------------------------|
|-------------------------4-----3-||----------------------------|
|-2-2-2-------2-2-2---------------||-5-4-4-3-3-2-1--------------|
|---------------------------------||---------------5-4-3-3-2-2--|

Q=124
11/4

S S S S S S S S S S S S S S S S S S S S S S S S S S S S S S S S S S S S S S S S S S S S
|------------------------------------------------------------------------------------------|
|------------------------------------------------------------------------------------------|
|------------------------------------------------------------------------------------------|
|------------------------------------------------------------------------------------------|
|------------------------------------------------------------------------------------------|
|-0-0-0-0---0-0-0-0---0-0-0-0---0-0-0-0---0-0-0-0---0-0-0-0---0-0-0-0---0-0-0-0---0-0-0----|

S S S S S S S S S S S S S S S S S S S S S S S S S S S S S S S S S S S S S S S S S S S S
|-----------------------------------------------------------------------------------------|
|-----------------------------------------------------------------------------------------|
|-----------------------------------------------------------------------------------------|
|-----------------------------------------------------------------------------------------|
|-----------------------------------------------------------------------------------------|
|-0-0-0-0---0-0-0-0---0-0-0-0---0-0-0-0---0-0-0-0---0-0-0-0---0-0-0-0---0-0-0-0---0-0-0---|

S S S S S S S S S S S S S S S S S S S S S S S S S S S S S S S S S S S S S S S S S S S S
|-----------------------------------------------------------------------------------------|
|-----------------------------------------------------------------------------------------|
|-----------------------------------------------------------------------------------------|
|-----------------------------------------------------------------------------------------|
|-7-7-7-7---7-7-7-7---7-7-7-7---7-7-7-7---7-7-7-7---7-7-7-7---7-7-7-7---7-7-7-7---7-7-7---|
|-----------------------------------------------------------------------------------------|
9/4                                                         2/4

S S S e S S S e S S S e S S S e S S S e S S S e S S S e S   H
|-----------------------------------------------------------|-------|
|-----------------------------------------------------------|-------|
|-----------------------------------------------------------|-------|
|-----------------------------------------------------------|-------|
|-7-7-7-7-7-7-7-7-7-7-7-7-7-7-7-7-7-7-7-7-7-7-7-7-7-7-7-7---|-7\----|
|-----------------------------------------------------------|-------|
11/4

S S S S S S S S S S S S S S S S S S S S S S S S S S S S S S S S S S S S S S S S S S S S
|------------------------------------------------------------------------------------------|
|------------------------------------------------------------------------------------------|
|------------------------------------------------------------------------------------------|
|------------------------------------------------------------------------------------------|
|-0-0-0-0---0-0-0-0---0-0-0-0---0-0-0-0---0-0-0-0---0-0-0-0---0-0-0-0---0-0-0-0---0-0-0----|
|------------------------------------------------------------------------------------------|

S S S S S S S S S S S S S S S S S S S S S S S S S S S S S S S S S S S S S S S S S S S S
|-----------------------------------------------------------------------------------------|
|-----------------------------------------------------------------------------------------|
|-------------------------------7-7-7-7-------------------------------------------7-7-7---|
|-7-7-7-7---7-7-7-7---9-9-9-9-------------7-7-7-7---7-7-7-7---9-9-9-9---9-9-9-9-----------|
|-----------------------------------------------------------------------------------------|
|-----------------------------------------------------------------------------------------|
4/4

S S S S S S S  S S S S S S S S S   Q  Q  Q  Q
|----------------------------------|-------------|
|----------------------------------|-------------|
|----------------------------------|-------------|
|-7-----6--------------------------|-------------|
|---7-9---7-0---10-9-0-8-7-0-6-5---|-9-----8-----|
|--------------------------------7-|----8-----7--|

S S S S S S S S S S S S S S S S   S S S S S S S S S S S S S S S S
|---------------------------------|---------------------------------|
|---------------------------------|---------------------------------|
|---------------------------------|-5-------2-----------------------|
|-7-----6-------5-4---3-2---1-0---|---3-4-6-------3-4-----0-1-0-----|
|---7-0---7-0-------0-----0-----2-|-----------5-6-----2-3-------3-2-|
|---------------------------------|---------------------------------|

S S S S S S S S S S S S S S S S   S S S S S S S S S S S S S S S S
|---------------------------------|---------------------------------|
|---------------------------------|---------------------------------|
|---------------------------------|---------------------------------|
|-7-----6-------5-4---3-2---1-0---|-----------------2-3-4-5-6---6-9-|
|---7-0---7-0-------0-----0-----2-|-3-2-0-2-----2-3-----------7-----|
|---------------------------------|---------4-5---------------------|

S S S S S S S S S S S S S S S S   e e S e S +H
|---------------------------------|------------------|
|---------------------------------|------------------|
|---------------------------------|------------------|
|-7-----6-------5-4---3-2---1-0---|-3-3-3-3-2-(2)----|
|---7-0---7-0-------0-----0-----2-|------------------|
|---------------------------------|------------------|

Q=132
E E E S S +S  E S E E   E E S S S S +S  S E E E
|-----------------------|-------------------------|
|-----------------------|-------------------------|
|-----------------------|-------------------------|
|-----------------------|-------------------------|
|-----------------------|-------------------------|
|-5-5-0-0-5-(5)-5-5-0-0-|-2-2-1-1---0-(0)-0-0-3-4-|

E E E S S +S  E S E E   E E S S S S +S  S E E E
|-----------------------|-------------------------|
|-----------------------|-------------------------|
|-----------------------|-------------------------|
|-----------------------|-------------------------|
|-----------------------|-------------------------|
|-5-5-0-0-5-(5)-5-5-0-0-|-7-7-7-7---0-(0)-0-8-7-6-|

E S S E S S E S S E S S   E E S S S S +S  S E E E
|-------------------------|-------------------------|
|-------------------------|-------------------------|
|-------------------------|-------------------------|
|-------------------------|-------------------------|
|-------------------------|-------------------------|
|-5-0-0-4-0-0-3-0-0-2-0-0-|-1-1-1-1---0-(0)-0-0-3-4-|

E S S E S S E S S E E    E.  S  +E   E  +S   E.  Q     Q   Q  H
|-----------------------|-----------------------------|--------------|
|-----------------------|-----------------------------|--------------|
|-----------------------|-----------------------------|--------------|
|-----------------------|-----------------------------|--------------|
|-----------------------|-----------------------------|--------------|
|-5-0-0-7-0-0-8-0-0-9-0-|-10--10-(10)-10-(10)-10--10--|-12\----------|

S S S S S S S S S S S S S S S S   S S S S S S S S S S S S S S S S
|---------------------------------|---------------------------------|
|---------------------------------|---------------------------------|
|-2-2-2-2-2-2-2-2-2-2-2-2-2-2-2-2-|-0-0-0-0-0-0-0-0-0-0-0-0-0-0-0-0-|
|---------------------------------|---------------------------------|
|---------------------------------|---------------------------------|
|---------------------------------|---------------------------------|

S S S S S S S S S S S S S S S S   S S S S S S S S S S S S S S S S
|---------------------------------|---------------------------------|
|---------------------------------|---------------------------------|
|---------------------------------|---------------------------------|
|-0-0-0-0-0-0-0-0-0-0-0-0-0-0-0-0-|---------------------------------|
|---------------------------------|-1-1-1-1-1-1-1-1-1-1-1-1-1-1-1-1-|
|---------------------------------|---------------------------------|

S S S S S S S S S S S S S S S S   S S S S S S S S S S S S S S S S
|---------------------------------|---------------------------------|
|---------------------------------|---------------------------------|
|-2-2-2-2-2-2-2-2-2-2-2-2-2-2-2-2-|-0-0-0-0-0-0-0-0-0-0-0-0-0-0-0-0-|
|---------------------------------|---------------------------------|
|---------------------------------|---------------------------------|
|---------------------------------|---------------------------------|

S S S S S S S S S S S S S S S S   S S S S S S S S S S S S S S S S
|---------------------------------|---------------------------------|
|---------------------------------|---------------------------------|
|---------------------------------|---------------------------------|
|-0-0-0-0-0-0-0-0-0-0-0-0-0-0-0-0-|---------------------------------|
|---------------------------------|-1-1-1-1-1-1-1-1-1-1-1-1-1-1-1-1-|
|---------------------------------|---------------------------------|

S S S S S S S S S S S S S S S S   S S S S S S S S S S S S S S S S
|---------------------------------|---------------------------------|
|---------------------------------|---------------------------------|
|---------------------------------|---------------------------------|
|---------------------------------|---------------------------------|
|-0-0-0-0-0-0-0-0-0-0-0-0-0-0-0-0-|-1-1-1-1-1-1-1-1-3-3-3-3-3-3-3-3-|
|---------------------------------|---------------------------------|
|------6-------|  |-----6-----|  |---5----|

S  S  S  S  S  S  S  S  S  S  E  S  S  S  E  S  S  S  S
|----------------------------------------------------------|
|----------------------------------------------------------|
|-------------------------------------------10-------------|
|-10-12-12-12-12-12-10-12-12-12-12-10-12-12----12-12-12-12-|
|----------------------------------------------------------|
|----------------------------------------------------------|
|-----5-----|                                |------6-------|

S  S  S  S  S  S  S  S  S  S  S  T  T  T  T  S  S  S  S  S  S
|----------------------------------------------------------------|
|----------------------------------------------------------------|
|-------10-12-12-14-14-12-10----------10-12-12S15-15-15-10-------|
|-10-12----------------------12-10-12----------------------12-12-|
|----------------------------------------------------------------|
|----------------------------------------------------------------|
|------6-------|  |-----5-----|

S  S  T  T  T  T  S  S  S  S  S  S  S  S  S  S  S  S  S  S  S
|----------------------------------------------------------------|
|----------------------------------------------------------------|
|-------10-12S14-15-17-17-17-10-------------12S15-17-18-18-18-10-|
|-10-12-------------------------12-12-10-12----------------------|
|----------------------------------------------------------------|
|----------------------------------------------------------------|
|--3--|  |------6-------|

S  S  S  S  E  +S    T  T  S  S  S  S  S  S  S  S  S  S  S
|-------------------------------------------16-17-16-16-------|
|----------------------14-14-16-19-16-17-19-------------17-16-|
|----15-17-18-19-(19)\----------------------------------------|
|-12----------------------------------------------------------|
|-------------------------------------------------------------|
|-------------------------------------------------------------|
|---5----|              |-----5-----|

S  S  S  E  S  S  S  S  S  S  S  S  S  S  S  S  S
|----------------------------------------------------|
|-14-------------14----------------------------------|
|----17-15-15-17----15-14-12----------12-14-12-------|
|----------------------------14-14-15----------15-14-|
|----------------------------------------------------|
|----------------------------------------------------|
|-----5-----|  |------6-------|  |-----5-----|

S  S  S  S  S  S  S  S  S  S  S  S  S  S  S  S  +S   S  S  S    S  E.  S E. S S S S S S S  S
|----------------------------14-16-18-16-14---------------------|----------------------------------|
|-------------------14-16-17----------------17-16-(16)-14-------|------------------7---------------|
|-------15-17-15-17---------------------------------------15-14-|-12-----------7-7-9-7-7-9-9-10----|
|-17-19---------------------------------------------------------|----15--14-0----------------------|
|---------------------------------------------------------------|----------------------------------|
|---------------------------------------------------------------|----------------------------------|

S S S S  S  S  S  S  Q  E S S
|--------------------------------|
|-----------9--9S11-11--9--------|
|-10-9-9-9-10-10S12-12-10--------|
|--------------------------------|
|--------------------------5-----|
|----------------------------8-6-|

E S S +S  S E S S S S E S S   E S S +S  S E S S S S E S S
|-----------------------------|-----------------------------|
|-----------------------------|-----------------------------|
|-----------------------------|-----------------------------|
|-----------------------------|---------------5-7-5-7-------|
|---5-7-(7)-------------5-----|---7-8-(8)-------------5-----|
|-5---------8-5-6-8-6-5---8-6-|-5---------8-5-----------8-6-|
3/4                     5/4

E S S +S  S E S S S S   S S E S S S S S S S S +E  S S E S S
|-----------------------|-------------------------------------|
|-----------------------|-------------------------------------|
|-----------------------|-------------------------------------|
|-----------------------|-------------5-7---8-7-(7)-----------|
|-0-5-7-(7)-------------|---5-7---------------------8-7-5-----|
|-----------8-5-6-8-6-5-|-------8-5-----------------------8-6-|
4/4

E S S +S  S E S S S S E S S
|------------------------------|
|------------------------------|
|------------------------------|
|------------------------------|
|---5-7-(7)-------------5------|
|-5---------8-5-6-8-6-5---8-6--|
3/4

E S S +S  S E S S S S E S S   E S S +S  S E S S S S
|-----------------------------|-----------------------|
|-----------------------------|-----------------------|
|-----------------------------|-----------------------|
|---------------5-7-5-7-------|-----------------------|
|---7-8-(8)-------------5-----|-0-5-7-(7)-------------|
|-5---------8-5-----------8-6-|-----------8-5-6-8-6-5-|
4/4

S S E S S S S S S S S +E  S S
|-------------------------------|
|-------------------------------|
|-------------------------------|
|-------------5-7---8-7-(7)-----|
|---5-7---------------------8-7-|
|-------8-5---------------------|

S S S S S S S S S S S S S S S S   S S S S S S S S S S S S S S S S
|---------------------------------|---------------------------------|
|---------------------------------|---------------------------------|
|---------------------------------|---------------------------------|
|---------------------------------|---------------------------------|
|-5-0-3-1-0-0-5-7-0-3-0-0-1-3-1-0-|-5-0-3-1-0-0-5-7-0-3-0-0-1-3-1-0-|
|---------------------------------|---------------------------------|

S S S S S S S S S S S S S S S S   S S S S S S S S S S S S S S S S
|---------------------------------|---------------------------------|
|---------------------------------|---------------------------------|
|---------------------------------|---------------------------------|
|---------------------------------|---------------------------------|
|-5-0-3-1-0-0-5-7-0-3-0-0-1-3-1-0-|-5-0-3-1-0-0-5-7-0-3-0-0-1-3-1-0-|
|---------------------------------|---------------------------------|

S S S S S S S S S S S S S S S S   S S S S S S S S S S S S  S  S  S  S
|---------------------------------|-------------------------------------|
|---------------------------------|-------------------------------------|
|---------------------------------|-------------------------------------|
|---------------------------------|-------------------------------------|
|-5-0-3-1-0-0-5-7-0-3-0-0-1-3-1-0-|-5-0-3-1-0-0-5-7-0-3-0-0-10-12-10-12-|
|---------------------------------|-------------------------------------|

S S S S S S S S S S S S S S S S   S S S S S S S  S  S S  S  S  +E  S S
|---------------------------------|--------------------------------------|
|---------------------------------|--------------------------------------|
|---------------------------------|--------------------------------------|
|---------------------------------|----------------------------------8-7-|
|-5-0-3-1-0-0-5-7-0-3-0-0-1-3-1-0-|-0-5-7-0-3-0-0-10-12-0-13-12-(12)-----|
|---------------------------------|--------------------------------------|

S S S S S S S S S S S S S S S S   S S S S S S S S S S S S S S S S
|---------------------------------|---------------------------------|
|---------------------------------|---------------------------------|
|---------------------------------|---------------------------------|
|-5-0-3-2-0-0-5-7-0-3-0-0-2-3-2-0-|-5-0-3-2-0-0-5-7-0-3-0-0-2-3-2-0-|
|---------------------------------|---------------------------------|
|---------------------------------|---------------------------------|

S S S S S S S S S S S S S S S S   S S S S S S S S S S S S S S S S
|---------------------------------|---------------------------------|
|---------------------------------|---------------------------------|
|---------------------------------|---------------------------------|
|-5-0-3-2-0-0-5-7-0-3-0-0-2-3-2-0-|-5-0-3-2-0-0-5-7-0-3-0-0-2-3-2-0-|
|---------------------------------|---------------------------------|
|---------------------------------|---------------------------------|

S S S S S S S S S S S S S S S S   S S S S S S S S S S S S S S S S
|---------------------------------|---------------------------------|
|---------------------------------|---------------------------------|
|---------------------------------|---------------7-5---5-----------|
|-5-0-3-2-0-0-5-7-0-3-0-0-2-3-2-0-|-5-0-3-2-0-0-5-----7---7-5-7-5---|
|---------------------------------|-------------------------------8-|
|---------------------------------|---------------------------------|

S S S S S S S S S S S S S S S S   S S S S S S S S S S S S S S S S
|---------------------------------|---------------------------------|
|---------------------------------|---------------------------------|
|---------------------------------|---------------7---5-------------|
|-5-0-3-2-0-0-5-7-0-3-0-0-2-3-2-0-|-5-0-3-2-0-0-5---------5---5-2-0-|
|---------------------------------|---------------------------------|
|---------------------------------|---------------------------------|

S S S S S S S S S S S S S S S S   S S S S S S S S S S S S S S S S
|---------------------------------|---------------------------------|
|---------------------------------|---------------------------------|
|---------------------------------|---------------------------------|
|-5-0-3-2-0-0-5-7-0-3-0-0-2-3-2-0-|-7-0-5-3-0-0-7-8-0-5-0-0-3-5-3-0-|
|---------------------------------|---------------------------------|
|---------------------------------|---------------------------------|

S S S S S S S  S S S S S S S S S    S S S S S S  S  S S S S S S S S S
|----------------------------------|------------------------------------|
|----------------------------------|------------------------------------|
|----------------------------------|------------------------------------|
|-8-0-7-5-0-0-8-10-0-7-0-0-5-7-5-0-|-10-0-8-7-0-0-10-12-0-8-0-0-7-8-7-0-|
|----------------------------------|------------------------------------|
|----------------------------------|------------------------------------|
7/16

S S  S S S S  S    S S  S  S S S  S    S S  S  S S S  S    S S  S  S S S  S
|------------------|-------------------|-------------------|-------------------|
|------------------|-------------------|-------------------|-------------------|
|------------------|-------------------|-------------------|-------------------|
|-12-0-10-8-0-0-12-|-14-0-12-10-0-0-14-|-15-0-14-12-0-0-15-|-17-0-15-14-0-0-17-|
|------------------|-------------------|-------------------|-------------------|
|------------------|-------------------|-------------------|-------------------|
6/16

S S  S  S S  S    S S  S  S S  S
|-----------------|-----------------|
|-----------------|-----------------|
|-----------------|-----------------|
|-19-0-17-15-0-19-|-20-0-19-17-0-20-|
|-----------------|-----------------|
|-----------------|-----------------|

S S  S  S S  S    S S  S  S S  S    S S  S  E.
|-----------------|-----------------|-------------|
|-----------------|-----------------|-------------|
|-----------------|-----------------|-------------|
|-22-0-20-19-0-22-|-24-0-22-24-0-22-|-24-0-22-24\-|
|-----------------|-----------------|-------------|
|-----------------|-----------------|-------------|
7/16                                                     4/4

S S S S S S S   S S  S S S  S  S   S  S  S  S  S  S  S    W
|---------------|------------------|------12-11-11s12-17-|-16tr17----|
|---------------|---------------10-|-9-10----------------|-----------|
|---------------|-----10-9-9s10----|---------------------|-----------|
|-------------8-|-7s8--------------|---------------------|-----------|
|-----8-7-7s8---|------------------|---------------------|-----------|
|-5s6-----------|------------------|---------------------|-----------|

Q=102
5/16                    7/16            5/16

S S S S S   S S S S S   S S S S S S S   S S S S S
|-9---9-----|-9---9-----|-9---9---9-----|-9---9-----|
|-----------|-----------|---------------|-----------|
|-----------|-----------|---------------|-----------|
|---0---0-0-|---0---0-0-|---0---0---0-0-|---0---0-0-|
|-----------|-----------|---------------|-----------|
|-----------|-----------|---------------|-----------|
7/16            5/16                    7/16

S S S S S S S   S S S S S   S S S S S   S S S S S S S
|-9---9---9-----|-9---9-----|-9---9-----|-9---9---9-----|
|---------------|-----------|-----------|---------------|
|---------------|-----------|-----------|---------------|
|---0---0---0-0-|---0---0-0-|---0---0-0-|---0---0---0-0-|
|---------------|-----------|-----------|---------------|
|---------------|-----------|-----------|---------------|
10/16

S  S S S E. E.  E. S S S S E.
|---------------|---------------|
|-2-------------|---------------|
|---------------|------7-7------|
|-x-12-----8----|------------8\-|
|--------0----8S|=5-------------|
|---------------|---------------|

Q=124
4/4             7/8           3/4

H    +E  Q.     H    +E  Q    H.        Q.   E +Q
|---------------|-------------|---------|--------------|
|---------------|-------------|---------|--------------|
|---------------|-------------|---------|--------------|
|---------------|-------------|---------|--------------|
|-3----(3)-4----|-3----(3)-1--|-0-------|------2-(2)---|
|---------------|-------------|---------|-1------------|
4/4             7/8

|---------------|-------------|
|---------------|-------------|
|---------------|-------------|
|---------------|-------------|
|-3----(3)-4----|-3----(3)-1--|
|---------------|-------------|

9/8                           6/8         9/8

|--------------|--------------|-----------|---------------|
|--------------|--------------|-----------|---------------|
|--------------|--------------|-----------|---------------|
|-7-------8----|-5-------4----|-0---------|-7-------8-----|
|--------------|--------------|------1----|---------------|
|--------------|--------------|-----------|---------------|
6/8       15/8                               9/8

H.        Q.   +Q   E +Q   E +Q.   Q  +E     H.      Q.
|---------|----------------------------------|--------------|
|---------|----------------------------------|--------------|
|---------|----------------------------------|--------------|
|-5-------|-4----(4)--0-(0)------------------|-7-------8----|
|---------|------------------4-(4)---2--(2)/-|--------------|
|---------|----------------------------------|--------------|
6/8         9/8            6/8

|--------------|-----------|--------------|-------|
|--------------|-----------|--------------|-------|
|--------------|-----------|--------------|-------|
|-5-------4----|-0---------|-7-------8----|-5-----|
|--------------|------1----|--------------|-------|
|--------------|-----------|--------------|-------|
15/8

Q.   +Q   E +Q   E +Q.   E E E
|--------------------------------|
|--------------------------------|
|--------------------------------|
|-4----(4)--0-(0)----------------|
|------------------2-(2)---2-2-2-|
|--------------------------------|
9/8

|--------------|----------------|--------------------|
|--------------|----------------|--------------------|
|--------------|----------------|--------------------|
|-7-------8----|-5----4----0----|-(0)---7----(7)-8---|
|--------------|----------------|--------------------|
|--------------|----------------|--------------------|
8/8           9/8

Q  Q  Q  Q    H.      Q.     Q.   Q.   Q.
|-------------|--------------|----------------|
|-------------|--------------|----------------|
|-------------|--------------|----------------|
|-5--4--0-----|-7-------8----|-5----4----0----|
|----------6--|--------------|----------------|
|-------------|--------------|----------------|
8/8

+Q.   Q.   +E  Q    Q  Q  Q  Q
|-------------------|--------------|
|-------------------|--------------|
|-------------------|--------------|
|-(0)---7----(7)-8--|-5--4--0------|
|-------------------|----------6---|
|-------------------|--------------|

Q=112
3/4

S  S  S  S  S  S  S  S  S  S  S  S
|-------------------------------------|
|-------------------------------------|
|----------13----12-------------------|
|-------11----11----13-14-14-15-11-12-|
|-12-14-------------------------------|
|-------------------------------------|
4/4

S  S  S  S  S  S  S  S  S  S  S  S  S  S  S  S
|-------------------------------------------------|
|-------------------------------------------------|
|----------13----12-------------------------------|
|-------11----11----13-14-14-15-11-12-13-14-10-11-|
|-12-14-------------------------------------------|
|-------------------------------------------------|
3/4

S  S  S  S  S  S  S  S  S  S  S  S
|-------------------------------------|
|-------------------------------------|
|----------13----12-------------------|
|-------11----11----13-14-14-15-11-12-|
|-12-14-------------------------------|
|-------------------------------------|
4/4

S  S  S  S  S  S  S  S  S  S  S  S  S  S  S  S
|-------------------------------------------------|
|----------------------------------------11-12-13-|
|----------13----12----------11-12-13-14----------|
|-------11----11----13-14-15----------------------|
|-12-14-------------------------------------------|
|-------------------------------------------------|
12/16                                 10/16

S  S  S  S  S  S  S  S  S  S  S  S    S  S  S  S  S  S  S  S  S  S
|-------------------------------------|-------------------------------|
|-------------------------------------|-------------------------------|
|----------13----12-------------------|----------13----12-------------|
|-------11----11----13-14-14-15-11-12-|-------11----11----14-15-11-12-|
|-12-14-------------------------------|-12-14-------------------------|
|-------------------------------------|-------------------------------|
12/16

S  S  S  S  S  S  S  S  S  S  S  S
|-------------------------------------|
|-------------------------------------|
|----------13----12-------------------|
|-------11----11----13-14-14-15-11-12-|
|-12-14-------------------------------|
|-------------------------------------|
14/16                                       5/16

S  S  S  S  S  S  S  S  S  S  S  S  S  S    S  S  S  S S    S  S  S  S S
|-------------------------------------------|---------------|---------------|
|-------------------------------------------|---------------|---------------|
|----------13----12-------------------------|---------------|---------------|
|-------11----11----14-15-11-12-13-14-10-11-|-14-11-13-11---|-14-11-13-11---|
|-12-14-------------------------------------|-------------0-|-------------0-|
|-------------------------------------------|---------------|---------------|
6/16               12/16

S  S  S  S S    S  S  S S  S  S   S S S S S S S S S S S S
|---------------|------------------|-------------------------|
|---------------|------------------|-------------------------|
|---------------|----------9-11-12-|-------------------------|
|-14-11-13-11---|-10-11-13---------|-------6---5-----2-3-----|
|-------------0-|------------------|-0-2-4---4---6-7-----4-5-|
|---------------|------------------|-------------------------|
16/16

S S S S S S S S S S S S S S S S
|-----------------------------------|
|-----------------------------------|
|-----------------------------------|
|-------6---5-----2-3-----1-2-------|
|-0-2-4---4---6-7-----4-5-----3-4---|
|-----------------------------------|
12/16                     16/16

S S S S S S S S S S S S   S S S S S S S S S S S S S S S S
|-------------------------|---------------------------------|
|-------------------------|---------------------------------|
|-------------------------|-------------------------2-4-5-6-|
|-------6---5-----2-3-----|-------6---5-----3-4-5-6---------|
|-0-2-4---4---6-7-----4-5-|-0-2-4---4---6-7-----------------|
|-------------------------|---------------------------------|
12/16                     10/16                 12/16

S S S S S S S S S S S S   S S S S S S S S S S   S S S S S S S S S S S S
|-------------------------|---------------------|-------------------------|
|-------------------------|---------------------|-------------------------|
|-------------------------|---------------------|-------------------------|
|-------6---5-----2-3-----|-------6---5-2-3-----|-------6---5-----2-3-----|
|-0-2-4---4---6-7-----4-5-|-0-2-4---4-------4-5-|-0-2-4---4---6-7-----4-5-|
|-------------------------|---------------------|-------------------------|
14/16                         5/16

S S S S S S S S S S S S S S   S S S S S
|-----------------------------|-----------|
|-----------------------------|-----------|
|-----------------------------|-----------|
|-------6---5-2-3-----1-2-----|-----------|
|-0-2-4---4-------4-5-----3-4-|-7-4-6-4-0-|
|-----------------------------|-----------|
6/16

S S S S S   S S S S S   S S S S S S
|-----------|-----------|-------------|
|-----------|-----------|-------------|
|-----------|-----------|-------------|
|-----------|-----------|-------2-4-5-|
|-7-4-6-4-0-|-7-4-6-4-0-|-3-4-5-------|
|-----------|-----------|-------------|
5/16

S S S S S   S S S S S   S S S S S   S S S S S
|-----------|-----------|-----------|-----------|
|-----------|-----------|-----------|-----------|
|-----------|-----------|-----------|-------2-4-|
|-7-4-6-4-0-|-7-4-6-4-0-|-7-4-6-4-0-|-3-4-6-----|
|-----------|-----------|-----------|-----------|
|-----------|-----------|-----------|-----------|
7/16            5/16

S S S S S   S S S S S S S   S S S S S
|-----------|---------------|------------|
|-----------|---------------|------------|
|-5-2-4-2---|-5-2-4-2-4-2---|-5-2-4-2----|
|---------3-|-------------3-|---------3--|
|-----------|---------------|------------|
|-----------|---------------|------------|
6/16          5/16                                7/16

S S S S S S   S S S S S   S S S S S   S S S S S   S S S S S S S
|-------------|-----------|-----------|-----------|---------------|
|-------2-3-5-|-6-3-5-----|-6-3-5-----|-6-3-5-----|---------------|
|-2-4-5-------|-------6-3-|-------6-3-|-------6-3-|-5-6-5-3-------|
|-------------|-----------|-----------|-----------|---------6-4-3-|
|-------------|-----------|-----------|-----------|---------------|
|-------------|-----------|-----------|-----------|---------------|

E=207
6/8

E. E S E E E   E. E S S T T S S S S
|--------------|----------------------|
|--------------|----------------------|
|----4---3-----|----4---3-4-3---------|
|-2----2---6-4-|-2----2-------6-4-2---|
|--------------|--------------------4-|
|--------------|----------------------|
7/8

E. E S E E E   E. E S S T T S S S S S S
|--------------|--------------------------|
|--------------|--------------------------|
|----6---4-2---|----6---4-6-4-------------|
|-4----4-----6-|-4----4-------8-6-4---4-6-|
|--------------|--------------------7-----|
|--------------|--------------------------|
6/8

E. E S E E E   E. E S S S S S S S   E. E S E E E
|--------------|--------------------|--------------|
|--------------|--------------------|--------------|
|--------------|--------------------|--------------|
|----7---6-----|----7---9-7-6-------|----4---3-----|
|-5----5---9-7-|-5----5-------9-7-5-|-2----2---6-4-|
|--------------|--------------------|--------------|
5/16      3/8

E. E S S S S S S S   E S S S   e e e
|--------------------|---------|---------*|
|--------------------|---------|---------*|
|--------------------|---------|---------*|
|----4---6-4-3-------|---------|-2-2-2---*|
|-2----2-------6-4-2-|-0-0-0-0-|---------*|
|--------------------|---------|---------*|

Duration Legend
---------------

W - whole; H - half; Q - quarter; E - 8th; S - 16th; T - 32nd; X - 64th; a - acciaccatura
+ - note tied to previous; . - note dotted; .. - note double dotted
Uncapitalized letters represent notes that are staccato (1/2 duration)
duration for.  Duration letters with no t number below them represent rests.  Multi-
bar rests are notated in the form Wxn, where n is the number of bars to rest for.  Low
----------------

b   - bend
pb  - pre-bend
r   - bend release (if no number after the r, then release immediately)
s   - legato slide
S   - shift slide
- natural harmonic
  - artificial harmonic
n(n) - tapped harmonic
~   - vibrato
T   - tap
PM  - palm muting
\n/  - tremolo bar dip; n = amount to dip
=   - hold bend; also acts as connecting device for hammers/pulls
x   - on rhythm slash represents muted slash
Misc Legend
-----------

||o - repeat start

&  - Coda
Tempo markers -  = BPM(8/16=s8/s16), where s8 = swing 8ths, s16 = swing 16ths
						
# Artist Title Tabdesignator