Dream Theater

In The Presence Of Enemies Part 2


							
Tuning:  G D A E B
  Intro:
    w                  q   q   q   q   x8  q   q   q   q  x5  q   q   q   q
 ||----------------||------4-------4---||------7-------7---||-----3-------3--|
 4|----------------||*----------------*||*----------------*||----------------|
 ||-r--------------||--2-------2-------||--5-------5-------||-1-------1------|
 4|----------------||*----------------*||*----------------*||----------------|
 ||----------------||------------------||------------------||----------------|

  Verse:
     q   q   q   q  x5  q   q   q   q      q   q   q   q  x5  q   q   q   q
 ||------7-------7---||-----3-------3--||------7-------7---||-----3-------3--|
 ||*----------------*||----------------||*----------------*||----------------|
 ||--5-------5-------||-1-------1------||--5-------5-------||-1-------1------|
 ||*----------------*||----------------||*----------------*||----------------|
 ||------------------||----------------||------------------||----------------|

  Pre-Chorus:
   h       h        w                w                h      e e e e
 |----------------|----------------|----------------|----------------|
 |----------------|----------------|----------------|----------------|
 |-1------/1------|-1--------------|-3--------------|-5-----/8-7-5-0-|
 |----------------|----------------|----------------|----------------|
 |----------------|----------------|----------------|----------------|

   w                w                h      e e e e   w
 |----------------|----------------|------------7---|-7--------------|
 |----------------|----------------|----------x---7-|----------------|
 |-1--------------|----------------|-0------L-------|----------------|
 |----------------|-3--------------|----------------|----------------|
 |----------------|----------------|----------------|----------------|

  Chorus:
   w               w                 w                w
 |---------------|-----------------|----------------|----------------|
 |---------------|-----------------|----------------|----------------|
 |---------------|-----------------|----------------|----------------|
 |---------------|-----------------|----------------|----------------|
 |-3-------------|-L---------------|-3--------------|-L--------------|

  Verse:
    s s s s s s s s e  h        s s s s s s s s h
 ||--------------------------||------------------------|
 9|--------------------------4|------------------------|
 ||-----------------r--r-----||-----------------r------|
 8|--------------------------4|------------------------|
 ||-3-5-6-3-5-6-3-3----------||-3-5-6-3-5-6-3-3--------|

    s s s s s s s s e  h        s s s s s s s s h
 ||--------------------------||------------------------|
 9|--------------------------4|------------------------|
 ||-----------------r--r-----||-----------------r------|
 8|-----3-----3--------------4|-----4-----4------------|
 ||-3-6---3-6---3-3----------||-3-6---3-6---3-3--------|

     s s s s s s s s e  h       s s s s s s s s h
 ||--------------------------||------------------------|
 9|--------------------------4|------------------------|
 ||------------------r--r----||-----------------r------|
 8|-----3-----3--------------4|-----6-----6------------|
 ||-3-6---3-6----3-3---------||-3-6---3-6---3-3--------|

    s s s s s s s s q.   q      s s s s s s s s h
 ||--------------------------||------------------------|
 9|--------------------------4|------------------------|
 ||-----------------r--------||-----------------r------|
 8|--------------------------4|------------------------|
 ||-3-5-6-3-5-6-3-3-----15\--||-3-5-6-3-5-6-3-3--------|

    s s s s s s s s q.   q      s s s s s s s s q   q
 ||--------------------------||------------------------|
 9|--------------------------4|---------------------.--|
 ||-----------------r--------||-----------------r---5--|
 8|-----3-----3--------------4|-----4-----4------------|
 ||-3-6---3-6---3-3-----15\--||-3-6---3-6---3-3--------|

    s s s s s s s s q.   q      s s s s s s s s s s s s s s s s
 ||--------------------------||---------------------------------|
 9|--------------------------4|---------------------------------|
 ||-----------------r--------||---------------------------------|
 8|-----3-----3--------------4|-----5-----5-----5-5-5-5-5-5-5-5-|
 ||-3-5---3-5---3-3-----15\--||-3-6---3-6---3-6-----------------|

  Pre-Chorus:
   ssssssssssssssss  ssssssssssssssss  ssssssssssssssss  ssssssssssssq
 |-----------------|-----------------|-----------------|-----------------|
 |-----------------|-----------------|-----------------|-----------------|
 |-1111111111111111|-1111111111111111|-3333333333333333|--------/55553---|
 |-----------------|-----------------|-----------------|-----------------|
 |-----------------|-----------------|-----------------|-33333333--------|

   ssssssssssssssss  ssssssssssssssss  ssssssssssssssss  ssssssssssssssss
 |-----------------|-----------------|-----------------|-----------------|
 |-----------------|-----------------|-----------------|-----------------|
 |-1111111111111110|-----------------|-0000000000000000|-0000000000010---|
 |-----------------|-3333333333333333|-----------------|--------------310|
 |-----------------|-----------------|-----------------|-----------------|

  Chorus:
   h.          e e   w                 h.          e e   q   e e e e q
 |-----------------|-----------------|-----------------|-----------------|
 |-----------------|-----------------|-----------------|-----------------|
 |-----------------|-----------------|-----------------|---------8-7-----|
 |-----------------|-----------------|-----------------|-----5-6-----4---|
 |-3-----------6-5-|-3---------------|-3-----------6-5-|-3---------------|

   q   q   q   e e   q   e e e e q     q   q   q   e e   w
 |-----------------|-----------------|-----------------|-----------------|
 |-----------------|-----------------|-----------------|-----------------|
 |-----------------|-----------5-----|-----------------|-----------------|
 |-----5---4-------|-----5-7-8---7---|-----5---4-------|-----------------|
 |-3-----------6-5-|-3---------------|-3-----------6-5-|-3---------------|

   Verse:
    s s s s s s s s e  h        s s s s s s s s h
 ||--------------------------||------------------------|
 9|--------------------------4|------------------------|
 ||-----------------r--r-----||-----------------r------|
 8|--------------------------4|------------------------|
 ||-3-5-6-3-5-6-3-3----------||-3-5-6-3-5-6-3-3--------|

    s s s s s s s s e  h        s s s s s s s s h
 ||--------------------------||------------------------|
 9|--------------------------4|------------------------|
 ||-----------------r--r-----||-----------------r------|
 8|-----3-----3--------------4|-----4-----4------------|
 ||-3-6---3-6---3-3----------||-3-6---3-6---3-3--------|

    s s s s s s s s e  h        s s s s s s s s s s s s s s s s
 ||--------------------------||---------------------------------|
 9|--------------------------4|---------------------------------|
 ||-----------------r--r-----||---------------------------------|
 8|-----3-----3--------------4|-----6-----6-----6-6-6-6-6-6-6-6-|
 ||-3-6---3-6---3-3----------||-3-6---3-6---3-6-----------------|

   ssssssssssssssss  ssssssssssssssss  ssssssssssssssss  ssssssssssssssss  ssssssssssssssss  ssssssssssssssss
 |-----------------|-----------------|-----------------|-----------------|-----------------|-----------------|
 |-----------------|-----------------|-----------------|-----------------|-----------------|-----------------|
 |-----------------|-----------------|-----------------|-----------------|-----------------|-----------------|
 |-----------------|-----------------|-3333333333333333|-4444444444444444|-3333333333333333|-5555555555555555|
 |-3333333333333333|-5555555555555555|-----------------|-----------------|-----------------|-----------------|

  Pre-Chorus:
   ssssssssssssssss  ssssssssssssssss  ssssssssssssssss  ssssssssssssq
 |-----------------|--------/3333\---|-----------------|-----------------|
 |-----------------|-----------------|-----------------|-----------------|
 |-1111111111111111|-1111111------111|-3333333333333333|-------------3---|
 |-----------------|-----------------|-----------------|-----------------|
 |-----------------|-----------------|-----------------|-333333333333----|

                                                                   -3--3--3-

   ssssssssssssssss  ssssssssssssssss  ssssssssssssssss  sssssssssssssssssss
 |------------/3333|-----------------|-----------------|--------------------|
 |-----------------|-----------------|-----------------|-----------2320-----|
 |-11111111111-----|-----------------|-0000000000000000|-0000000000----310--|
 |-----------------|-4444444400000000|-----------------|------------------10|
 |-----------------|-----------------|-----------------|--------------------|

   Chorus:
     w         x3   q  e e e e q      w         x3    w             q  q  q  e e
 ||--------------||---------------||--------------||-------------||--------------|
 ||*------------*||---------------||*------------*||*-----------*||--------------|
 ||--------------||--------8-7----||--------------||-------------||--------------|
 ||*------------*||----5-6-----4--||*------------*||*-----------*||----5--4------|
 ||--3-----------||-3-------------||--3-----------||--5----------||-3--------6-5-|

   Interlude:
    w.                w.          x3  w.                w.         x6   e e e e e e e e e q.
 ||---------------||---------------||---------------||---------------||-7-7-7-7-7-7-7-7-7-7---|
 6|---------------||*-------------*||---------------||*-------------*||-----------------------|
 ||---------------||---------------||---------------||---------------||-----------------------|
 4|---------------||*-------------*||---------------||*-------------*||-----------------------|
 ||-3-------------||--L------------||-5-------------||--L------------||-----------------------|

   Verse:
     e e e e e e e e e e e e x4  e e e e e e e e e e e e   e e e e e e e e e e e e
 ||---------------------------||-------------------------|-------------------------|
12|*-------------------------*||---------------7---5-----|-------------------------|
 ||---------------------------||-------8-7-------------6-|-------8-7---------------|
 8|*-------------------------*||-5-6-5-----4/5---5---5---|-5-6-5-----5-3-5-5-4-5-5-|
 ||--3-3-3-3-3-3-3-3-3-3-3-3--||-------------------------|-------------------------|

   e e e e e e e e e e e e   e e e e e e e e e e e e
 |-------------------------|--------------------------|
 |---------------7---5-----|--------------------------|
 |-------8-7-------------6-|-------8-7------------8-7-|
 |-5-6-5-----4/5---5---5---|-5-6-5-----5-6-5/10-9-----|
 |-------------------------|--------------------------|

     e e e e e e e e e e e e x4  e e e e e e e e e e e e   e e e e e e e e e e e e
 ||---------------------------||-------------------------|-------------------------|
 ||*-------------------------*||-------------------------|-------------------------|
 ||---------------------------||-------5-4-----5---4---5-|-------5-4---------------|
 ||*-------------------------*||-3-6-3-----6-3---3---3---|-3-6-3-----6-1-3-3-2-3-3-|
 ||--3-3-3-3-3-3-3-3-3-3-3-3--||-------------------------|-------------------------|

   e e e e e e e e e e e e   e e e e e e e e e e e e
 |-------------------------|-------------0-3-0-2-0-3-|
 |-------------------------|---3---2---3-------------|
 |-------5-4-----5---4---5-|-------------------------|
 |-3-6-3-----6-3---3---3---|-3---3---3---------------|
 |-------------------------|-------------------------|

     e e e e e e e e e e e e x4  e e e e e e e e e e e e   e e e e e e e e e e e e
 ||---------------------------||-------------------------|-------------------------|
 ||*-------------------------*||---------------5---3-----|-------------------------|
 ||--0-0-0-0-0-0-0-0-0-0-0-0--||-------6-5-------------4-|-------6-5---------------|
 ||*-------------------------*||-3-4-3-----2/3---3---3---|-3-4-3-----3-1-3-3-2-3-3-|
 ||---------------------------||-------------------------|-------------------------|

   e e e e e e e e e e e e   e e e e e e e e e e e e
 |-------------------------|-------------------------|
 |---------------5---3-----|-------------------------|
 |-------6-5-------------4-|-------6-5-----------6-5-|
 |-3-4-3-----2/3---3---3---|-3-4-3-----3-4-3/8-7-----|
 |-------------------------|-------------------------|

  Pre-Chorus:
   q   e e e e q   e e e e   q   e e e e q   e e e e   q   e e e e q   e e e e   q   e e e e  q   e e e e
 |-------------------------|-------------------------|-------------------------|------------/10--10101010-|
 |-------------------------|-------------------------|-------------3---3-3-3-3-|--------------------------|
 |------------/7---7-7-7-7-|------------/7---7-7-7-7-|-------------------------|--------------------------|
 |-0---0-0-0-0-------------|-0---0-0-0-0-------------|-1---1-1-1-1-------------|-1---1-1-1-1--------------|
 |-------------------------|-------------------------|-------------------------|--------------------------|

   e e e e e e e e e e e e   e e e e e e e e e e e e   e e e e e e e e e e e e   e e e e e e e e e q.
 |-------------------------|-------------------------|-------------------------|--------------------------|
 |-------------------------|-------------------------|-------------------------|--------------------------|
 |-5-5-5-5-5-5-5-5-5-5-5-5-|-5-5-5-5-5-5-5-5-5-5-5-5-|-------------------------|--------------------------|
 |-------------------------|-------------------------|-6-6-6-6-6-6-6-6-6-6-6-6-|-6-6-6-6-6-6-6-6-6-6\-----|
 |-------------------------|-------------------------|-------------------------|--------------------------|

   q   e e e e q   e e e e   q   e e e e q   e e e e   q   e e e e q   e e e e    q   e e e e q   e e e e
 |-------------------------|-------------------------|-------------------------|/10--10101010-------------|
 |-------------------------|-------------------------|-------------3---3-3-3-3-|--------------3---3-3-3-3-|
 |------------/7---7-7-7-7-|------------/7---7-7-7-7-|-------------------------|--------------------------|
 |-0---0-0-0-0-------------|-0---0-0-0-0-------------|-1---1-1-1-1-------------|--------------------------|
 |-------------------------|-------------------------|-------------------------|--------------------------|

   e e e e e e e e e e e e   e e e e e e e e e e e e   e e e e e e e e e e e e   e e e e e e e e e e e e
 |-------------------------|-------------------------|-------------------------|--------------------------|
 |-------------------------|-------------------------|-------------------------|-/8-8-8-8-8-8-8-8-8-8-8-8-|
 |-5-5-5-5-5-5-5-5-5-5-5-5-|-5-5-5-5-5-5-5-5-5-5-5-5-|-------------------------|--------------------------|
 |-------------------------|-------------------------|-6-6-6-6-6-6-6-6-6-6-6-6-|--------------------------|
 |-------------------------|-------------------------|-------------------------|--------------------------|

    e e e e e e e e e e e e   e e e e e e e e e e e e   e e e e e e e e e e e e   e e e e e e e e e e e e
 ||-------------------------|-------------------------|-------------------------|-------------------------|
 6|-------------2-2-L-2-L-2-|-------------2-2-L-2-L-2-|-------------6-6-L-6-L-6-|-------------6-6-L-6-L-6-|
 ||-------------------------|-------------------------|-------------------------|-------------------------|
 4|-0-0-L-0-L-0-------------|-0-0-L-0-L-0-------------|-4-4-L-4-L-4-------------|-4-4-L-4-L-4-------------|
 ||-------------------------|-------------------------|-------------------------|-------------------------|

   Verse:
     e e e e e e e e e e e e x4  e e e e e e e e e e e e   e e e e e e e e e e e e
 ||---------------------------||-------------------------|-------------------------|
12|*-------------------------*||---------------7---5-----|-------------------------|
 ||---------------------------||-------8-7-------------6-|-------8-7---------------|
 8|*-------------------------*||-5-6-5-----4/5---5---5---|-5-6-5-----5-3-5-5-4-5-5-|
 ||--3-3-3-3-3-3-3-3-3-3-3-3--||-------------------------|-------------------------|

   e e e e e e e e e e e e   e e e e e e e e  e e e e
 |-------------------------|--------------------------|
 |---------------7---5-----|--------------------------|
 |-------8-7-------------6-|-------8-7------------8-7-|
 |-5-6-5-----4/5---5---5---|-5-6-5-----5-6-5/10-9-----|
 |-------------------------|--------------------------|

     e e e e e e e e e e e e x4  e e e e e e e e e e e e   e e e e e e e e e e e e
 ||---------------------------||-------------------------|-------------------------|
 ||*-------------------------*||-------------------------|-------------------------|
 ||---------------------------||-------5-4-----5---4---5-|-------5-4---------------|
 ||*-------------------------*||-3-6-3-----6-3---3---3---|-3-6-3-----6-1-3-3-2-3-3-|
 ||--3-3-3-3-3-3-3-3-3-3-3-3--||-------------------------|-------------------------|

   e e e e e e e e e e e e   e e e e e e e e e e e e
 |-------------------------|-------------0-3-0-2-0-3-|
 |-------------------------|---3---2---3-------------|
 |-------5-4-----5---4---5-|-------------------------|
 |-3-6-3-----6-3---3---3---|-3---3---3---------------|
 |-------------------------|-------------------------|

     e e e e e e e e e e e e x4  e e e e e e e e e e e e   e e e e e e e e e e e e
 ||---------------------------||-------------------------|-------------------------|
 ||*-------------------------*||---------------5---3-----|-------------------------|
 ||--0-0-0-0-0-0-0-0-0-0-0-0--||-------6-5-------------4-|-------6-5---------------|
 ||*-------------------------*||-3-4-3-----2/3---3---3---|-3-4-3-----3-1-3-3-2-3-3-|
 ||---------------------------||-------------------------|-------------------------|

   e e e e e e e e e e e e   e e e e e e e e e e e e
 |-------------------------|-------------------------|
 |---------------5---3-----|-------------------------|
 |-------6-5-------------4-|-------6-5-----------6-5-|
 |-3-4-3-----2/3---3---3---|-3-4-3-----3-4-3/8-7-----|
 |-------------------------|-------------------------|

 Pre-Chorus:
   q   e e e e q   e e e e   q   e e e e q   e e e e   q   e e e e q   e e e e   q   e e e e q   e e e e
 |-------------------------|-------------------------|-------------------------|------------/10--10101010-|
 |-------------------------|-------------------------|-------------3---3-3-3-3-|--------------------------|
 |------------/7---7-7-7-7-|------------/7---7-7-7-7-|-------------------------|--------------------------|
 |-0---0-0-0-0-------------|-0---0-0-0-0-------------|-1---1-1-1-1-------------|-1---1-1-1-1--------------|
 |-------------------------|-------------------------|-------------------------|--------------------------|

   e e e e e e e e e e e e   e e e e e e e e e e e e   e e e e e e e e e e e e   e e e e e e e e e q.
 |-------------------------|-------------------------|-------------------------|--------------------------|
 |-------------------------|-------------------------|-------------------------|--------------------------|
 |-5-5-5-5-5-5-5-5-5-5-5-5-|-5-5-5-5-5-5-5-5-5-5-5-5-|-------------------------|--------------------------|
 |-------------------------|-------------------------|-6-6-6-6-6-6-6-6-6-6-6-6-|-6-6-6-6-6-6-6-6-6-6\-----|
 |-------------------------|-------------------------|-------------------------|--------------------------|

   q   e e e e q   e e e e   q   e e e e q   e e e e   q   e e e e q   e e e e   q   e e e e q   e e e e
 |-------------------------|-------------------------|-------------------------|--------------------------|
 |-------------------------|-------------------------|-------------3---3-3-3-3-|--------------3---3-3-3-3-|
 |------------/7---7-7-7-7-|------------/7---7-7-7-7-|-------------------------|--------------------------|
 |-0---0-0-0-0-------------|-0---0-0-0-0-------------|-1---1-1-1-1-------------|-1---1-1-1-1--------------|
 |-------------------------|-------------------------|-------------------------|--------------------------|

   e e e e e e e e e e e e   e e e e e e e e e e e e   q   e e e e q   e e e e    q   e q.    q   e q.
 |-------------------------|-------------------------|-------------------------|--------------------------|
 |-------------------------|-------------------------|-------------------------|-/8---8-8-----8---8-8-----|
 |-5-5-5-5-5-5-5-5-5-5-5-5-|-5-5-5-5-5-5-5-5-5-5-5-5-|-------------------------|--------------------------|
 |-------------------------|-------------------------|-6---6-6-6-6-6---6-6-6-6-|--------------------------|
 |-------------------------|-------------------------|-------------------------|--------------------------|

    e e e e e e e e e e e e   e e e e e e e e e e e e   e e e e e e e e e e e e   e e e e e e e e e e e e
 ||-------------------------|-------------------------|-------------------------|-------------------------|
 6|-------------------------|-------------------------|-------------------------|------------/6-6-6-6-6-6-|
 ||-------------------------|-------------------------|-------------------------|-------------------------|
 4|-0-0-L-0-L-0-0-0-L-0-L-0-|-0-0-L-0-L-0-0-0-L-0-L-0-|-4-4-L-4-L-4-4-4-L-4-L-4-|-4-4-L-4-L-4-------------|
 ||-------------------------|-------------------------|-------------------------|-------------------------|

   Chorus:
    q.   q   e q.   q   e    q.   q   e q   q      q.   q   e q.   q   e    q.   q   e q   q
 ||-----------------------||--------------------||-----------------------||---------------------|
 6|------------2----2---2-5|------------2---2---6|------------3----3---3-5|------------3--------|
 ||-----------------------||--------------------||-----------------------||---------------------|
 4|-0----0---0------------4|-0----0---0---------4|-1----1---1------------4|-1----1---1------1---|
 ||-----------------------||--------------------||-----------------------||---------------------|

    q.   q   e q.   q   e    q.   q   e q   q      q.   q   e q.   q   e    q.   q   e q   q
 ||-----------------------||--------------------||-----------------------||---------------------|
 6|-----------------------5|--------------------6|------------6----6---6-5|------------6--------|
 ||------------5----5---5-||------------5---5---||-----------------------||---------------------|
 4|-----------------------4|--------------------4|-4----4---4------------4|-4----4---4------4---|
 ||-3----3---3------------||-3----3---3---------||-----------------------||---------------------|

    q.   q   e q.   q   e    q.   q   e q   q      q.   q   e q.   q   e    q.   q   e q   q
 ||-----------------------||--------------------||-----------------------||---------------------|
 6|------------7----7---7-5|------------7---7---6|------------8----8---8-5|------------8--------|
 ||-----------------------||--------------------||-----------------------||---------------------|
 4|-5----5---5------------4|-5----5---5---------4|-6----6---6------------4|-6----6---6------6---|
 ||-----------------------||--------------------||-----------------------||---------------------|

    q.   q   e q.   q   e   q.   q   e q   q   q     q.   q   e q.   q   e   q.   q   e q.   q   e
 ||-----------------------|------------6---6---6---|------------2----2---2-|------------2----2---2-|
 6|-----------------------|------------------------|-----------------------|-----------------------|
 ||-4----4---4-4----4---4-|-4----4---4-------------|-0----0---0------------|-0----0---0------------|
 4|-----------------------|------------------------|-----------------------|-----------------------|
 ||-----------------------|------------------------|-----------------------|-----------------------|

                                Break:
     e e e e e e e e e e e e      e q   q   q   q   e e e x12
 ||---------------------------||---------------------------||
 ||*-------------------------*||*-------------------------*||
 ||--0-0-0-0-0-0-0-0-0-0-0-0--||----.---.---.---.----------||
 ||*-------------------------*||*-3-3---3---3---3---3-3-3-*||
 ||---------------------------||---------------------------||

   Instrumental part I:
    e q   q   e q   q   q      e q   q   e q   q     e q   q   e q   q      q.    q.    q.    q.
 ||-------------------------||---------------------|---------------------||-------------------------|
 6|-------------5-------5---5|-------------5---5---|-------------5-------6|-5-----5-----5-----5-----|
 ||-------------------------||---------------------|---------------------||-------------------------|
 4|-3-3---3---3-----3-------4|-3-3---3---3---------|-3-3---3---3-----3---4|-------------------------|
 ||-------------------------||---------------------|---------------------||-------------------------|

    e q   q   e q   q   q      e q   q   e q   q     e q   q   e q   q      q   e q   q   e q   q
 ||-------------------------||---------------------|---------------------||-------------------------|
 6|-------------5-------5---5|-------------5---5---|-------------5---3---6|-2---3-5-----------------|
 ||-------------------------||---------------------|---------------------||-----------4---5-7-------|
 4|-3-3---3---3-----3-------4|-3-3---3---3---------|-3-3---3---3---------4|---------------------6---|
 ||-------------------------||---------------------|---------------------||-------------------------|

    e q   q   e q   q   q      e q   q   e q   q     e q   q   e q   q      q.    q.    q.    q.
 ||-------------------------||---------------------|---------------------||-------------------------|
 6|-------------------------5|---------------------|-------------5---3---6|-------------------------|
 ||---5---4---------4---5---||---5---4-------------|---5---4-------------||-7-----5-----4-----------|
 4|-3---------3-6-----------4|-3---------3-5---6---|-3---------3---------4|-------------------6-----|
 ||-------------------------||---------------------|---------------------||-------------------------|

    e q   q   e q   q   q      e q   q   e q   q     e q   q   e q   q      q   e q   q   e q   q
 ||-------------------------||---------------------|---------------------||-------------------------|
 6|-------------------------5|---------------------|-------------5---3---6|-2---3-5-----------------|
 ||---5---4---------4---5---||---5---4-------------|---5---4-------------||-----------4---5-7-------|
 4|-3---------3-6-----------4|-3---------3-5---6---|-3---------3---------4|---------------------6---|
 ||-------------------------||---------------------|---------------------||-------------------------|

    e e e e e e e e e e e e    e e e e e e e e e e   e e e e e e e e e e    e e e e e e e e e e e e
 ||-------------------------||---------------------|---------------------||-------------------------|
 6|-------------------------5|---------------------|---------------------6|-------------------------|
 ||-------------------------||---------------------|---------------------||-------------------------|
 4|-0-6-0-5-0-0-3-0-5-0-6-0-4|-0-6-0-5-0-0-2-0-3-0-|-0-6-0-5-0-0-9-0-8-0-4|-6-0-0-5-0-0-3-0-0-2-0-0-|
 ||-------------------------||---------------------|---------------------||-------------------------|

    e e e e e e e e e e e e    e e e e e e e e e e   e e e e e e e e e e    e e e e e e e e e e e e
 ||-------------------------||---------------------|---------------------||-------------------------|
 6|-------------------------5|---------------------|---------------------6|-------------------------|
 ||-------------------------||---------------------|---------------------||-------------------------|
 4|-0-6-0-5-0-0-3-0-5-0-6-0-4|-0-6-0-5-0-0-2-0-3-0-|-0-6-0-5-0-0-9-0-8-0-4|-6-0-8-9-0-5-0-6-8-0-3-0-|
 ||-------------------------||---------------------|---------------------||-------------------------|

    e q   q   e q   q   q      e q   q   e q   q     e q   q   e q   q      q.    q.    q.    q.
 ||-------------------------||---------------------|---------------------||-------------------------|
 6|-------------------------5|---------------------|-------------5---3---6|-------------------------|
 ||---5---4---------4---5---||---5---4-------------|---5---4-------------||-7-----5-----4-----------|
 4|-3---------3-6-----------4|-3---------3-5---6---|-3---------3---------4|-------------------6-----|
 ||-------------------------||---------------------|---------------------||-------------------------|

    e q   q   e q   q   q      e q   q   e q   q     e q   q   e q   q      q   e q   q   e q   q
 ||-------------------------||---------------------|---------------------||-------------------------|
 6|-------------------------5|---------------------|-------------5---3---6|-2---3-5-----------------|
 ||---5---4---------4---5---||---5---4-------------|---5---4-------------||-----------4---5-7-------|
 4|-3---------3-6-----------4|-3---------3-5---6---|-3---------3---------4|---------------------6---|
 ||-------------------------||---------------------|---------------------||-------------------------|

   Instrumental part II:
     e e e e e e e e e e e e   e e e e e e e e q   q     e e e e e e e e e e e e
 ||------------------------5-|-------------------------|-------------------7-----|
 ||*-7-5-------7-5-------5---|-7-5-------7-5-----------|-7-5-------7-5-7-8---8-7-|
 ||------6-5-r-----6-5-6-----|-----6-5-r-----6-5---3---|-----6-5-r---------------|
 ||*-------------------------|-------------------------|-------------------------|
 ||--------------------------|-------------------------|-------------------------|

   q   e e e e e e e q.      e e e q.   e e e e     q   e q.   e e e q.      e e e e     e e e e
 |------------------------||---------------------||-----------------------||-7-5------||---------|
 |------------------------5|---------------------6|-------5----------4----2|-----6-5-*||---------|
 |-6---6-5-----------6----||-------5----4-3------||------------4-4-4------||----------||-5-3-----|
 |---------8-6-5-L-5------4|-4-4-4----------6-4--4|-3---3-----------------4|---------*||-----6-4-|
 |------------------------||---------------------||-----------------------||----------||---------|

   Instrumental part III:       										  |
     e e e q.   q   q       e e e q.   q.   q   q      e e e q.   q   q      e e e q.   q.   q   q  x2|
 ||--------3----2---.---||--------------------------||-------3----2-------||-5-----------------------||
 5|*-----5----------2---13--5-----------------------5|-----5----------.---13-------4----------------*||
 ||----5----------------||----6---6-------------6---||---5------------6---||---6-3------2------------||
 4|*-3------------------8|------5------4----5-------4|-3------------------8|-----------------1---2--*||
 ||---------------------||--------------------------||--------------------||-------------------------||

|---------|  |
|---------|  |
|-5---6---|   > x2
|---------|  |
|---------| _|

    e e e e e e e e e e e e    e e e e e e e e q   q     e e e e e e e e e e e e
 ||------------------------5-|-------------------------|-------------------7-----|
 ||*-7-5-------7-5-------5---|-7-5-------7-5-----------|-7-5-------7-5-7-8---8-7-|
 ||------6-5-r-----6-5-6-----|-----6-5-r-----6-5---3---|-----6-5-r---------------|
 ||*-------------------------|-------------------------|-------------------------|
 ||--------------------------|-------------------------|-------------------------|

   q   e e e e e e e q.      e e e q.   e e e e     q   e q.   e e e q.      e e e e     e e e e
 |------------------------||---------------------||-----------------------||-7-5------||---------|
 |------------------------5|---------------------6|-------5----------4----2|-----6-5-*||---------|
 |-6---6-5-----------6----||-------5----4-3------||------------4-4-4------||----------||-5-3-----|
 |---------8-6-5-L-5------4|-4-4-4----------6-4--4|-3---3-----------------4|---------*||-----6-4-|
 |------------------------||---------------------||-----------------------||----------||---------|

  Break:
    e q   q   q   q   e e e   e q   q   q   q   e e e
 ||-------------------------|-------------------------|
 6|-------------------------|-------------------------|
 ||---.---.---.---.---------|---.---.---.---.---------|
 4|-3-3---3---3---3---3-3-3-|-3-3---3---3---3---3-3-3-|
 ||-------------------------|-------------------------|

   Guitar solo:
    e e e e e e e e e     e e e e e e e e e e     e e e e e e e e e     e e e e e e e e e e e
 ||--------------------||----------------------||--------------------||-----------------------|
 9|--------------------5|----------------------9|--------------------11-----------------------|
 ||--------------------||----------------------||--------------------||-----------------3-----|
 8|-5-3-5-6-5-3-6-5-3--4|-5-3-5-6-5-3-----3-6--8|-5-3-5-6-5-3-6-5-3--8|-5-3-5-6-5-3-5-6---6-3-|
 ||--------------------||-------------5-6------||--------------------||-----------------------|

    e e e e e e e e e     e e e e e e e e e e     e e e e e e e e e e e e     e e e e e e e e e e e e e e
 ||--------------------||----------------------||--------------------------||-----------------------------|
 9|--------------------5|----------------------6|--------------------------7------------------------------|
 ||--------------------||----------------------||--------------------------||-----------------3-----3-----|
 8|-5-3-5-6-5-3-6-5-3--4|-5-3-5-6-5-3-----3-6--4|-5-3-5-6-5-3-6-5-3-6-5-3--4|-5-3-5-6-5-3-5-6---6-3---6-3-|
 ||--------------------||-------------5-6------||--------------------------||-----------------------------|

    e e e e e e e e e     e e e e e e e e e e     e e e e e e e e e     e e e e e e e e e e e
 ||--------------------||----------------------||--------------------||-----------------------|
 9|--------------------5|----------------------9|--------------------11-----------------1-----|
 ||-3-1-3-4-3-1-4-3-1--||-3-1-3-4-3-1-----1-4--||-3-1-3-4-3-1-4-3-1--||-3-1-3-4-3-1-3-4---4-1-|
 8|--------------------4|-------------3-4------8|--------------------8|-----------------------|
 ||--------------------||----------------------||--------------------||-----------------------|

    e e e e e e e e e     e e e e e e e e e e     e e e e e e e e e e e e     e e e e e e e e e e e e e e
 ||--------------------||----------------------||--------------------------||-----------------------------|
 9|--------------------5|----------------------6|--------------------------7|-----------------1-----1-----|
 ||-3-1-3-4-3-1-4-3-1--||-3-1-3-4-3-1-----1-4--||-3-1-3-4-3-1-4-3-1-4-3-1--||-3-1-3-4-3-1-3-4---4-1---4-1-|
 8|--------------------4|-------------3-4------4|--------------------------4|-----------------------------|
 ||--------------------||----------------------||--------------------------||-----------------------------|

                                                       |1.                |2.

    h.      h.        h.     h    e e   h.     h    q  | h.     h    q    | q.  q.  q.  q.
 ||-----------------|-----------------|----------------|-----------------||-----------------|
 6|-----------------|--------3--------|----------------|----------------*||-----------------|
 ||-3-------4-------|-6-----------6-4-|-3------4-------|-----------------||-------------4---|
 4|-----------------|-----------------|-------------4--|-3------4----6--*||-3---4---6-------|
 ||-----------------|-----------------|----------------|-----------------||-----------------|

  Keyboard Solo:
    e e e e e e e e e     e e e e e e e e e e     e e e e e e e e e     e e e e e e e e e e e
 ||--------------------||----------------------||--------------------||-----------------------|
 9|--------------------5|----------------------9|--------------------11-----------------4-----|
 ||-6-4-6-7-6-4-7-6-4--||-6-4-6-7-6-4-----4-7--||-6-4-6-7-6-4-7-6-4--||-6-4-6-7-6-4-6-7---7-4-|
 8|--------------------4|-------------6-7------8|--------------------8|-----------------------|
 ||--------------------||----------------------||--------------------||-----------------------|

    e e e e e e e e e    e e e e e e e e e e     e e e e e e e e e e e e     e e e e e e e e e e e e e e
 ||--------------------||----------------------||--------------------------||-----------------------------|
 9|--------------------5|----------------------6|--------------------------7|-----------------4-----4-----|
 ||-6-4-6-7-6-4-7-6-4--||-6-4-6-7-6-4-----4-7--||-6-4-6-7-6-4-7-6-4-7-6-4--||-6-4-6-7-6-4-6-7---7-4---7-4-|
 8|--------------------4|-------------6-7------4|--------------------------4|-----------------------------|
 ||--------------------||----------------------||--------------------------||-----------------------------|

    e e e e e e e e e     e e e e e e e e e e     e e e e e e e e e     e e e e e e e e e e e
 ||--------------------||----------------------||--------------------||-----------------------|
 9|--------------------5|----------------------9|--------------------11-----------------------|
 ||--------------------||----------------------||--------------------||-----------------------|
 8|-2-0-2-3-2-0-3-2-0--4|-2-0-2-3-2-0-----0-3--8|-2-0-2-3-2-0-3-2-0--8|-2-0-2-3-2-0-2-3-5-3-0-|
 ||--------------------||-------------2-3------||--------------------||-----------------------|

    e e e e e e e e e     e e e e e e e e e e     e e e e e e e e e e e e     e e e e e e e e e e e e e e
 ||--------------------||----------------------||-------------------------||-----------------------------|
 9|--------------------5|----------------------6|-------------------------7|-----------------------------|
 ||--------------------||----------------------||-------------------------||-----------------------------|
 8|-2-0-2-3-2-0-3-2-0--4|-2-0-2-3-2-0-----0-3--4|-2-0-2-3-2-0-3-2-0-3-2-0-4|-2-0-2-3-2-0-2-3-5-3-0-5-3-0-|
 ||--------------------||-------------2-3------||-------------------------||-----------------------------|

                                                       |1.                |2.

    h.      h.        h.     h    e e   h.     h    q  | h.     h    q    | q.  q.  q.  q.
 ||-----------------|-----------------|----------------|-----------------||-----------------|
 6|-----------------|-----------------|----------------|----------------*||-----------------|
 ||-----------------|--------2--------|----------------|-----------------||-----------------|
 4|-2-------3-------|-5-----------5-3-|-2------3-------|----------------*||-------------3---|
 ||-----------------|-----------------|-------------3--|-2------3----5---||-2---3---5-------|

  Guitar & Keyboard Solo:
     q   e q      q   e q   q        q   e q      q   e q   q
 ||------------||----------------||------------||---------------||
 5|*-----------7|---------------*5|*-----------7|--------------*||
 ||------r-----||-----r----------||------r-----||-----r---------||
 8|*-5-----5---8|-5-----5---5---*8|*-----------8|--------------*||
 ||------------||----------------||--3-----3---||-3-----3---3---||

     q   e q      q   e q   q       q.    q       q.    q   q
 ||------------||---------------||------------||-----------------||
 5|*-----------7|--------------*5|*-4---------7|*-4-------------*||
 ||------r-----||-----r---------||------------||-----------------||
 8|*-2-----2---8|-2-----2---2--*8|*-------2---8|*-------2---2---*||
 ||------------||---------------||------------||-----------------||

    12/8

      q.   q.   q.   q.     q   q   q   q   q   q      q   q   q   q   q   q     q   q   q   q   q   q
 ||-/11-------------------|-------------------------|-----------------14------|-----19--15---------------|
 12-------10\---7---------|-----------------7-------|-----12------11------15--|-17-----------------------|
 ||------------------6\---|-----5-------4-------8---|-10------13--------------|-------------17-----------|
 8|-----------------------|-3-------6---------------|-------------------------|-----------------15--13---|
 ||-----------------------|-------------------------|-------------------------|--------------------------|

     e  e  e  e  e    e  e  e  e e     e e e e e e e   e e e e e e e
 ||-14----12-------|-10-------------||-7-----5-------|---------------|
 5|----15----14-12-|----12-14-10-7--7|---7-5---5-----|---------------|
 ||----------------|----------------||-----------8-7-|-5-------------|
 8|----------------|----------------8|---------------|---5---8-------|
 ||----------------|----------------||---------------|-----8---8-6-5-|

  Keyboard Slow Solo:
    w                w                 h       q   q     q.    sse. ssse
 ||----------------|-----------------|-----------------|-----------------|
 4|----------------|-----------------|-----------------|-----------------|
 ||----------------|-----------------|---------1---3---|---------5---5---|
 4|----------------|-----------------|-3---------------|--------5---5-5--|
 ||-3--------------|-3---------------|-----------------|-3-----L-------3-|

   w                 q.   ss h         h       q   q     e e e. e se ssss
 |-----------------|-----------------|-----------------|-----------------|
 |-----------------|-----------------|-----------------|--------3--------|
 |-----------------|-----------------|---------1---3---|-----5----53-53--|
 |-----------------|-----------------|-3---------------|---5-------------|
 |-3---------------|-3----33-L-------|-----------------|-3-------------65|

   sse e e e e q     sse e e e. sq     e sse e q   ssss  q.   e h
 |-----------------|-----------------|-----------------|-----------------|
 |-----------------|-------------5---|---878-------75--|-----------------|
 |-------5-3-5-----|-----3-5-2--5----|-------5-------87|-5---------------|
 |-----5-------5---|-013-------------|-3-------6-------|------5----------|
 |-356-------------|-----------------|-----------------|--------3--------|

   sse e e e e q     sse e ss e.sq     e sse e q   ssss  q.   e h
 |-----------------|-----------------|-----------------|-----------------|
 |-----------------|-------------5---|---878-------75--|-----------------|
 |-------5-3-5-----|-----3-52-L-5----|-------5-------87|-5---------------|
 |-----5-------5---|-013-------------|-3-------6-------|------5----------|
 |-356-------------|-----------------|-----------------|--------3--------|

  Pre- Verse:
   h       q.    e   q.    e q   e e   h       q.    e   q.    e q   q     h       h         h       h
 |-----------------|-----------------|-----------------|-----------------|-----------------|-----------------|
 |-----------------|-----------------|-----------------|-----------------|-----------------|-----------------|
 |---------------2-|-3-------3---5-6-|---------------1-|-2-------2---4---|-6-------4-------|-3-------2-------|
 |-5-------5-------|-------3---------|-4-------4-------|-------2---------|-----------------|-----------------|
 |-----------------|-----------------|-----------------|-----------------|-----------------|-----------------|

  Verse:
   q   q   ssssssss  e. sq   q   e e   q   q   ssssssss  e. se e e e e e
 |-----------------|-----------------|-------------2---|-----------------|
 |-----2---2024542-|-----------------|-----3---3235-352|-----------------|
 |----------------2|-5---------------|-----------------|-0--00-2-3-2-0---|
 |-0---------------|----5----------0-|-1---------------|---------------0-|
 |-----------------|-----3---3---3---|-----------------|-----------------|

                                                                 -3--3--3-

   q   e. se e e e   q.    e q   q     e e e e e e e e   e e e e ssssssssse
 |-----------------|-----------------|-----------------|--------/3333333333\|
 |---------5-------|-----------------|-----------------|--------------------|
 |--------5--5---5-|-----------------|-----------------|-1-1-1-1------------|
 |-3---3-------3---|-1-----1-1---0---|-----------------|--------------------|
 |-----------------|-----------------|-3-3-3-3-1-1-1-1-|--------------------|

  Chorus:
   ssssssssssssssss  ssssssssssssssss  ssssssssssssssss  ssssssssssssssss
 |-----------------|-----------------|-----------------|-----------------|
 |-----------------|-----------------|-----------------|-----------------|
 |-----------------|-----------------|-----------------|-----------------|
 |-----------------|-------------4444|-5555555555555555|-4444444444444444|
 |-3333333333333333|-555555555555----|-----------------|-----------------|

   ssssssssssssssss  ssssssssssssssss  ssssssssssssssss  ssssssssssssssss
 |-----------------|-----------------|-----------------|-----------------|
 |-----------------|---------33333322|-----------------|-----------------|
 |-----------------|-----------------|-5555555533333333|-1111111111111111|
 |-3333333333333300|-11111111--------|-----------------|-----------------|
 |-----------------|-----------------|-----------------|-----------------|

  Post-Chorus:
   e. se. sssssssss  e. se. sssssssss  e. se. sssssssss  e. ssse e ssssss
 |-----------------|-----------------|-----------------|-----------------|
 |-----2---2-------|-----2---33------|-----2---2222--3-|-----2-2~--3-----|
 |----2---2-2------|----2---2--552222|----2---2----2--5|----2-2-----5----|
 |-0---------000000|-0---------------|-0------------0--|-0-------0---3101|
 |-----------------|-----------------|-----------------|-----------------|

  Outro:
   w                 h       e e e e   w                 w
 |-----------------|-----------------|-----------------|-----------------|
 |-----------------|-----------------|-----------------|-----------------|
 |-----------------|--------/5-5-5-5\|-----------------|-----------------|
 |-----------------|-----------------|-----------------|-----------------|
 |-3---------------|-3---------------|-3---------------|-5---------------|

   w                 w                 q   e e e e e e     h
 |-----------------|-----------------|------------------||---------|
 |-----------------|-----------------|------------------2|---------|
 |-----------------|-----------------|---------8-7------||-r-------|
 |-----------------|-6---------------|-6---5-6-----4-5--4|---------|
 |-5---------------|-----------------|------------------||---------|

    w                w                 q   q    h
 ||----------------|-----------------|------------------||
 4|----------------|-----------------|------------------||
 ||-5~~~~----------|-L---------------|-L---5\---r-------||
 4|----------------|-----------------|------------------||
 ||----------------|-----------------|------------------||

 bpm: tempo    4: Time signature   ||* & *||: Repeat Open & Close   |1.2.: endings
 / : slide up      \ : slide down      h : hammer-on      p : pull-off
 L : tie note      ~ : vibrato         r : rest           x : dead note
 . : staccato      T : tapping         S : slap           P : pop
 + : harmonic      ah: artificial harmonic
 w: whole note     h: half note        q: quarter note    s: sixteen note
 t: 32nd note      --3--: triplet      w. h. q. etc: dotted note
						
# Artist Title Tabdesignator