Dragonforce

Fury Of The Storm


							
Gtr I (E A D G) - 'Un
 Intro
  Q=200
 4/4

  Q  Q  Q  E E   Q  Q  Q  Q    H    +Q    Q     W
|--------------|-------------|---------------|--------|
|--------------|-------------|---------------|--------|
|-7--------7-7-|-5-----------|-2----(2)S=14--|-14\----|
|--------------|-------------|---------------|--------|

  Q  Q  Q  Q    W          q  q  q  q    q  q  q  q
|-------------|----------|-------------|-------------|
|-------------|----------|-------------|-------------|
|-7-----------|-5--------|-2--2--2--2--|-2--2--2--2--|
|-------------|----------|-------------|-------------|

    S S S S S S S S S S S S S S S S   S S S S S S S S S S S S S S S S
||----------------------------------|----------------------------------|
||o---------------------------------|-5-5-5-5-5-5-5-5-5-5-5-5-5-5-5-5--|
||o-7-7-7-7-7-7-7-7-7-7-7-7-7-7-7-7-|----------------------------------|
||----------------------------------|----------------------------------|

  S S S S S S S S S S S S S S S S   S S S S S S S S S S S S S S S S
|---------------------------------|---------------------------------|
|---------------------------------|---------------------------------|
|-3-3-3-3-3-3-3-3-3-3-3-3-3-3-3-3-|-5-5-5-5-5-5-5-5-5-5-5-5-5-5-5-5-|
|---------------------------------|---------------------------------|

  S S S S S S S S S S S S S S S S   S S S S S S S S S S S S S S S S
|---------------------------------|---------------------------------|
|---------------------------------|-5-5-5-5-5-5-5-5-5-5-5-5-5-5-5-5-|
|-7-7-7-7-7-7-7-7-7-7-7-7-7-7-7-7-|---------------------------------|
|---------------------------------|---------------------------------|

  S S S S S S S S S S S S S S S S   S S S S S S S S S S S S S S S S
|---------------------------------|----------------------------------||
|---------------------------------|---------------------------------o||
|-3-3-3-3-3-3-3-3-3-3-3-3-3-3-3-3-|-2-2-2-2-2-2-2-2-2-2-2-2-2-2-2-2-o||
|---------------------------------|----------------------------------||

  S S S S S S S S S S S S S S S S   q  Q  Q  Q    W
|---------------------------------|-------------|------|
|---------------------------------|-------------|------|
|-3-3-3-3-3-3-3-3-3-3-3-3-3-3-3-3-|-2-----------|------|
|---------------------------------|-------------|------|

  S S S S S S S S S S S S S S S S   S S S S S S S S S S S S S S S S
|---------------------------------|---------------------------------|
|---------------------------------|---------------------------------|
|-7-7-7-7-7-7-7-7-7-7-7-7-7-7-7-7-|-7-7-7-7-7-7-7-7-7-7-7-7-7-7-7-7-|
|---------------------------------|---------------------------------|

  S S S S S S S S S S S S S S S S   S S S S S S S S S S S S S S S S
|---------------------------------|---------------------------------|
|---------------------------------|---------------------------------|
|-3-3-3-3-3-3-3-3-3-3-3-3-3-3-3-3-|-3-3-3-3-3-3-3-3-3-3-3-3-3-3-5-3-|
|---------------------------------|---------------------------------|

  S S S S S S S S S S S S S S S S   S S S S S S S S S S S S S S S S
|---------------------------------|---------------------------------|
|---------------------------------|---------------------------------|
|-7-7-7-7-7-7-7-7-7-7-7-7-7-7-7-7-|-7-7-7-7-7-7-7-7-7-7-7-7-7-7-7-7-|
|---------------------------------|---------------------------------|

   S  S  S  S  S  S  S  S  S  S  S  S  S  S  S  S
|-------------------------------------------------|
|-10-10-10-10-10-10-10-10-10-10-10-10-10-10-10-10-|
|-------------------------------------------------|
|-------------------------------------------------|

   S  S  S  S  S  S  S  S  S  S  S  S  S  S  S  S
|-------------------------------------------------|
|-10-10-10-10-10-10-10-10-10-10-10-10-10-10-10-10-|
|-------------------------------------------------|
|-------------------------------------------------|

  S S S S S S S S S S S S S S S S   S S S S S S S S S S S S S S S S
|---------------------------------|---------------------------------|
|---------------------------------|---------------------------------|
|---------------------------------|---------------------------------|
|-5-5-5-5-5-5-5-5-5-5-5-5-5-5-5-5-|-5-5-5-5-5-5-5-5-5-5-5-5-5-5-5-5-|

  S S S S S S S S S S S S S S S S   S S S S S S S S S S S S S S S S
|---------------------------------|---------------------------------|
|---------------------------------|---------------------------------|
|-7-7-7-7-7-7-7-7-7-7-7-7-7-7-7-7-|-7-7-7-7-7-7-7-7-7-7-7-7-7-7-7-7-|
|---------------------------------|---------------------------------|

  S S S S S S S S S S S S S S S S   S S S S S S S S S S S S S S S S
|---------------------------------|---------------------------------|
|---------------------------------|---------------------------------|
|-3-3-3-3-3-3-3-3-3-3-3-3-3-3-3-3-|-3-3-3-3-3-3-3-3-3-3-3-3-3-3-5-3-|
|---------------------------------|---------------------------------|

  S S S S S S S S S S S S S S S S   q  Q  Q  Q
|---------------------------------|-------------|
|---------------------------------|-------------|
|-2-2-2-2-2-2-2-2-2-2-2-2-2-2-2-2-|-2-----------|
|---------------------------------|-------------|

  S S  S  S  S S  S  S S S  S  S  S S  S  S   q  q  Q  Q
|-----------14-9-11-12-----------14-9-11-12-|---------------||
|-9-9-11-12------------9-9-11-12------------|---------------||
|-------------------------------------------|-2--2----------||
|-------------------------------------------|---------------||

 Verse
  S S S S S S S S S S S S S S S S   S S S S S S S S S S S S S S S S
|---------------------------------|---------------------------------|
|---------------------------------|---------------------------------|
|-7-7-7-7-7-7-7-7-7-7-7-7-7-7-7-7-|-7-7-7-7-7-7-7-7-7-7-7-7-7-7-7-7-|
|---------------------------------|---------------------------------|

  S S S S S S S S S S S S S S S S   Q  E H    +E
|---------------------------------|---------------|
|---------------------------------|---------------|
|-7-7-7-7-7-7-7-7-7-7-7-7-7-7-7-7-|-7--5-3----(3)-|
|---------------------------------|---------------|

  S S S S S S S S S S S S S S S S   S S S S S S S S S S S S S S S S
|---------------------------------|---------------------------------|
|---------------------------------|---------------------------------|
|-7-7-7-7-7-7-7-7-7-7-7-7-7-7-7-7-|-7-7-7-7-7-7-7-7-7-7-7-7-7-7-7-7-|
|---------------------------------|---------------------------------|

  S S S S S S S S S S S S S S S S   Q  E H    +E
|---------------------------------|---------------|
|---------------------------------|---------------|
|-7-7-7-7-7-7-7-7-7-7-7-7-7-7-7-7-|-3--3-5----(5)-|
|---------------------------------|---------------|

  S S S S S S S S S S S S S S S S   S S S S S S S S S S S S S S S S
|---------------------------------|---------------------------------|
|---------------------------------|---------------------------------|
|-7-7-7-7-7-7-7-7-7-7-7-7-7-7-7-7-|-7-7-7-7-7-7-7-7-7-7-7-7-7-7-7-7-|
|---------------------------------|---------------------------------|

   S  S  S  S  S  S  S  S  S  S  S  S  S  S  S  S
|-------------------------------------------------|
|-10-10-10-10-10-10-10-10-10-10-10-10-10-10-10-10-|
|-------------------------------------------------|
|-------------------------------------------------|

   S  S  S  S  S  S  S  S  S  S  S  S  S  S  S  S
|-------------------------------------------------|
|-10-10-10-10-10-10-10-10-10-10-10-10-10-10-10-10-|
|-------------------------------------------------|
|-------------------------------------------------|

  S S S S S S S S S S S S S S S S   S S S S S S S S S S S S S S S S
|---------------------------------|---------------------------------|
|---------------------------------|---------------------------------|
|-7-7-7-7-7-7-7-7-7-7-7-7-7-7-7-7-|-7-7-7-7-7-7-7-7-7-7-7-7-7-7-7-7-|
|---------------------------------|---------------------------------|

   S  S  S  S  S  S  S  S  S  S  S  S  S  S  S  S
|-------------------------------------------------|
|-10-10-10-10-10-10-10-10-10-10-10-10-10-10-10-10-|
|-------------------------------------------------|
|-------------------------------------------------|

  S  S S  S S  S S  S S  S S  S S  S S  S
|-----------------------------------------||
|-9-10-9-10-9-10-9-10-9-10-9-10-9-10-9-10-||
|-----------------------------------------||
|-----------------------------------------||

 Verse
  S S S S S S S S S S S S S S S S   S S S S S S S S S S S S S S S S
|---------------------------------|---------------------------------|
|---------------------------------|---------------------------------|
|-7-7-7-7-7-7-7-7-7-7-7-7-7-7-7-7-|-7-7-7-7-7-7-7-7-7-7-7-7-7-7-7-7-|
|---------------------------------|---------------------------------|

  S S S S S S S S S S S S S S S S   Q  E H    +E
|---------------------------------|---------------|
|---------------------------------|---------------|
|-7-7-7-7-7-7-7-7-7-7-7-7-7-7-7-7-|-7--5-3----(3)-|
|---------------------------------|---------------|

  S S S S S S S S S S S S S S S S   S S S S S S S S S S S S S S S S
|---------------------------------|---------------------------------|
|---------------------------------|---------------------------------|
|-7-7-7-7-7-7-7-7-7-7-7-7-7-7-7-7-|-7-7-7-7-7-7-7-7-7-7-7-7-7-7-7-7-|
|---------------------------------|---------------------------------|

  S S S S S S S S S S S S S S S S   Q  E H    +E
|---------------------------------|---------------||
|---------------------------------|---------------||
|-7-7-7-7-7-7-7-7-7-7-7-7-7-7-7-7-|-3--3-5----(5)-||
|---------------------------------|---------------||

 Prechorus
  E E E E E E E E   E E E E E E E E   E E E E E E E E   W
|-----------------|-----------------|-----------------|------|
|-----------------|-----------------|-----------------|-5----|
|-----------------|-3-3-3-3-3-3-3-3-|-5-5-5-5-5-5-5-5-|------|
|-5-5-5-5-5-5-5-5-|-----------------|-----------------|------|

  E E E E E E E E   E E E E E E E E   E E E E E E E E   W
|-----------------|-----------------|-----------------|------|
|-----------------|-----------------|-5-5-5-5-5-5-5-5-|------|
|-----------------|-3-3-3-3-3-3-3-3-|-----------------|-5----|
|-5-5-5-5-5-5-5-5-|-----------------|-----------------|------|

|----------|------------|----------|------------|
|----------|------------|----------|------------|
|----------|------------|-3--------|-(3)--------|
|-3--------|-(3)--------|----------|------------|

|----------|------------|----------|--------|
|----------|------------|----------|-/10----|
|-5--------|-(5)--------|-3--------|--------|
|----------|------------|----------|--------|

  S S S S S S S S S S S S S S S S   S S S S S S S S S S S S S S S S
|---------------------------------|---------------------------------|
|---------------------------------|---------------------------------|
|-2-2-2-2-2-2-2-2-2-2-2-2-2-2-2-2-|-2-2-2-2-2-2-2-2-2-2-2-2-2-2-2-2-|
|---------------------------------|---------------------------------|

  Q  Q  Q  Q    W
|-------------|------|
|----2--5--2--|------|
|-3-----------|-3----|
|-------------|------|

  S S S S S S S S S S S S S S S S   S S S S S S S S S S S S S S S S
|---------------------------------|---------------------------------|
|---------------------------------|---------------------------------|
|-3-3-3-3-3-3-3-3-3-3-3-3-3-3-3-3-|-3-3-3-3-3-3-3-3-3-3-3-3-3-3-3-3-|
|---------------------------------|---------------------------------|

  S S S S S S S S S S S S S S S S   q  Q  Q  Q
|---------------------------------|-------------||
|---------------------------------|-------------||
|-5-5-5-5-5-5-5-5-5-5-5-5-5-5-5-5-|-5-----------||
|---------------------------------|-------------||

 Chorus
  S S S S S S S S S S S S S S S S   S S S S S S S S S S S S S S S S
|---------------------------------|---------------------------------|
|---------------------------------|---------------------------------|
|---------------------------------|-5-5-5-5-5-5-5-5-5-5-5-5-5-5-5-5-|
|-3-3-3-3-3-3-3-3-3-3-3-3-3-3-3-3-|---------------------------------|

  S S S S S S S S S S S S S S S S   S S S S S S S S S S S S S S S S
|---------------------------------|---------------------------------|
|---------------------------------|---------------------------------|
|-7-7-7-7-7-7-7-7-7-7-7-7-7-7-7-7-|-3-3-3-3-3-3-3-3-3-3-3-3-3-3-3-3-|
|---------------------------------|---------------------------------|

  S S S S S S S S S S S S S S S S   S S S S S S S S S S S S S S S S
|---------------------------------|---------------------------------|
|---------------------------------|---------------------------------|
|---------------------------------|---------------------------------|
|-3-3-3-3-3-3-3-3-3-3-3-3-3-3-3-3-|-3-3-3-3-3-3-3-3-3-3-3-3-3-3-3-3-|

  S S S S S S S S H      S S S S S S S S H
|----------------------|----------------------|
|----------------------|----------------------|
|-3-3-3-3-3-3-3-3-3----|-5-5-5-5-5-5-5-5-5----|
|----------------------|----------------------|

|----------|----------|------|
|----------|----------|------|
|----------|-5--------|-7----|
|-3--------|----------|------|

        T       T       T       T
          |--3--| |--3--|  |-3--|

  E  S  S S  S  S S  S  S  S S  S  S S  S  S E   q  Q  Q  Q    q  Q  Q  Q
|----------------------------------------------|-------------|-------------||
|-----------------9h10-12p10p9-----------------|-------------|-------------||
|---------8h10-12--------------12-10-8---------|-3-----------|-5-----------||
|-8h10-12------------------------------12-10-8-|-------------|-------------||

 2nd Solo
  S S S S S S S S S S S S S S S S   S S S S S S S S S S S S S S S S
|---------------------------------|---------------------------------|
|---------------------------------|---------------------------------|
|-7-7-7-7-7-7-7-7-7-7-7-7-7-7-7-7-|-7-7-7-7-7-7-7-7-7-7-7-7-7-7-7-7-|
|---------------------------------|---------------------------------|

  S S S S S S S S S S S S S S S S   S S S S S S S S S S S S S S S S
|---------------------------------|---------------------------------|
|---------------------------------|---------------------------------|
|-5-5-5-5-5-5-5-5-5-5-5-5-5-5-5-5-|-5-5-5-5-5-5-5-5-5-5-5-5-5-5-5-5-|
|---------------------------------|---------------------------------|

  S S S S S S S S S S S S S S S S   S S S S S S S S S S S S S S S S
|---------------------------------|---------------------------------|
|---------------------------------|---------------------------------|
|---------------------------------|---------------------------------|
|-3-3-3-3-3-3-3-3-3-3-3-3-3-3-3-3-|-3-3-3-3-3-3-3-3-3-3-3-3-3-3-3-3-|

  S S S S S S S S S S S S S S S S   S S S S S S S S S S S S S S S S
|---------------------------------|---------------------------------|
|---------------------------------|---------------------------------|
|-5-5-5-5-5-5-5-5-5-5-5-5-5-5-5-5-|-5-5-5-5-5-5-5-5-5-5-5-5-5-5-5-5-|
|---------------------------------|---------------------------------|

    S S S S S S S S S S S S S S S S   S S S S S S S S S S S S S S S S   3x
||----------------------------------|-----------------------------------||
||o---------------------------------|----------------------------------o||
||o-3-3-3-3-3-3-3-3-3-3-3-3-3-3-3-3-|-5-5-5-5-5-5-5-5-5-5-5-5-5-5-5-5--o||
||----------------------------------|-----------------------------------||

  E  E  E  E  S  S  S S  S  S  S S   q  q  Q  Q
|---------11-16-12-11-9-14-12-11-9-|-------------||
|-9-10-12--------------------------|-------------||
|----------------------------------|-------------||
|----------------------------------|-7--7--------||

 Verse
  S S S S S S S S S S S S S S S S   S S S S S S S S S S S S S S S S
|---------------------------------|---------------------------------|
|---------------------------------|---------------------------------|
|-7-7-7-7-7-7-7-7-7-7-7-7-7-7-7-7-|-7-7-7-7-7-7-7-7-7-7-7-7-7-7-7-7-|
|---------------------------------|---------------------------------|

  S S S S S S S S S S S S S S S S   Q  E H    +E
|---------------------------------|---------------|
|---------------------------------|---------------|
|-7-7-7-7-7-7-7-7-7-7-7-7-7-7-7-7-|-7--5-3----(3)-|
|---------------------------------|---------------|

  S S S S S S S S S S S S S S S S   S S S S S S S S S S S S S S S S
|---------------------------------|---------------------------------|
|---------------------------------|---------------------------------|
|-7-7-7-7-7-7-7-7-7-7-7-7-7-7-7-7-|-7-7-7-7-7-7-7-7-7-7-7-7-7-7-7-7-|
|---------------------------------|---------------------------------|

  S S S S S S S S S S S S S S S S   Q  E H    +E
|---------------------------------|---------------||
|---------------------------------|---------------||
|-7-7-7-7-7-7-7-7-7-7-7-7-7-7-7-7-|-3--3-5----(5)-||
|---------------------------------|---------------||

 Prechorus
  E E E E E E E E   E E E E E E E E   E E E E E E E E   W
|-----------------|-----------------|-----------------|------|
|-----------------|-----------------|-----------------|-5----|
|-----------------|-3-3-3-3-3-3-3-3-|-5-5-5-5-5-5-5-5-|------|
|-5-5-5-5-5-5-5-5-|-----------------|-----------------|------|

  E E E E E E E E   E E E E E E E E   E E E E E E E E   W
|-----------------|-----------------|-----------------|------|
|-----------------|-----------------|-5-5-5-5-5-5-5-5-|------|
|-----------------|-3-3-3-3-3-3-3-3-|-----------------|-5----|
|-5-5-5-5-5-5-5-5-|-----------------|-----------------|------|

|----------|------------|----------|------------|----------|------------|------|
|----------|------------|----------|------------|----------|------------|------|
|----------|------------|-3--------|-(3)--------|-5--------|-(5)--------|-3----|
|-3--------|-(3)--------|----------|------------|----------|------------|------|

   S  S  S  S  S  S  S  S  S  S  S  S  S  S  S  S
|-------------------------------------------------|
|-10-10-10-10-10-10-10-10-10-10-10-10-10-10-10-10-|
|-------------------------------------------------|
|-------------------------------------------------|

  S S S S S S S S S S S S S S S S   S S S S S S S S S S S S S S S S
|---------------------------------|---------------------------------|
|---------------------------------|---------------------------------|
|-2-2-2-2-2-2-2-2-2-2-2-2-2-2-2-2-|-2-2-2-2-2-2-2-2-2-2-2-2-2-2-2-2-|
|---------------------------------|---------------------------------|

  Q  Q  Q  Q    W
|-------------|------|
|----2--5--2--|------|
|-3-----------|-3----|
|-------------|------|

  S S S S S S S S S S S S S S S S   S S S S S S S S S S S S S S S S
|---------------------------------|---------------------------------|
|---------------------------------|---------------------------------|
|-3-3-3-3-3-3-3-3-3-3-3-3-3-3-3-3-|-3-3-3-3-3-3-3-3-3-3-3-3-3-3-3-3-|
|---------------------------------|---------------------------------|

  S S S S S S S S S S S S S S S S   q  Q  Q  Q
|---------------------------------|-------------||
|---------------------------------|-------------||
|-5-5-5-5-5-5-5-5-5-5-5-5-5-5-5-5-|-5-----------||
|---------------------------------|-------------||

 Chorus
  S S S S S S S S S S S S S S S S   S S S S S S S S S S S S S S S S
|---------------------------------|---------------------------------|
|---------------------------------|---------------------------------|
|---------------------------------|-5-5-5-5-5-5-5-5-5-5-5-5-5-5-5-5-|
|-3-3-3-3-3-3-3-3-3-3-3-3-3-3-3-3-|---------------------------------|

  S S S S S S S S S S S S S S S S   S S S S S S S S S S S S S S S S
|---------------------------------|---------------------------------|
|---------------------------------|---------------------------------|
|-7-7-7-7-7-7-7-7-7-7-7-7-7-7-7-7-|-3-3-3-3-3-3-3-3-3-3-3-3-3-3-3-3-|
|---------------------------------|---------------------------------|

  S S S S S S S S S S S S S S S S   S S S S S S S S S S S S S S S S
|---------------------------------|---------------------------------|
|---------------------------------|---------------------------------|
|---------------------------------|---------------------------------|
|-3-3-3-3-3-3-3-3-3-3-3-3-3-3-3-3-|-3-3-3-3-3-3-3-3-3-3-3-3-3-3-3-3-|

  S S S S S S S S H      S S S S S S S S H
|----------------------|----------------------|
|----------------------|----------------------|
|-3-3-3-3-3-3-3-3-3----|-5-5-5-5-5-5-5-5-5----|
|----------------------|----------------------|

|----------|----------|----------|
|----------|----------|----------|
|----------|-5--------|-7--------|
|-3--------|----------|----------|

        T       T       T       T
          |--3--| |--3--|  |-3--|

  E  S  S S  S  S S  S  S  S S  S  S S  S  S E
|----------------------------------------------|
|-----------------9h10-12p10p9-----------------|
|---------8h10-12--------------12-10-8---------|
|-8h10-12------------------------------12-10-8-|

  q  Q  Q  Q    q  Q  Q  Q    S S S S S S S S S S S S S S S S
|-------------|-------------|----------------------------------||
|-------------|-------------|----------------------------------||
|-3-----------|-5-----------|-7-7-7-7-7-7-7-7-7-7-7-7-7-7-7-7--||
|-------------|-------------|----------------------------------||

                                       T           T     T     T    T
  q  Q  Q  Q    Wx6           E  S  S  S  S  S  S  S  S  S  S  S S  S  S
|-------------|------------|----------------------14-12-14-10-14-9-14-12-|
|-------------|------------|-10-12-14-15-14-12-10------------------------|
|-7-----------|------------|---------------------------------------------|
|-------------|------------|---------------------------------------------|

    E E E E E E E E   E E E E E E E E   E E E E E E E E   E E E E E E E E   4x
||------------------|-----------------|-----------------|-------------------||
||o-----------------|-----------------|-----------------|------------------o||
||o-7-7-7-7-7-7-7-7-|-7-7-7-7-----5-5-|-3-3-3-3-3-3-3-3-|-3-3-3-3-3-3-3-3--o||
||------------------|---------0-0-----|-----------------|-------------------||

  Q  Q  Q  Q    Q  Q  Q  q    Q  Q  Q  Q    Q  Q  Q  q
|-------------|-------------|-------------|-------------|
|-------------|-------------|-------------|-------------|
|-7-----5-----|-3--------3--|-7-----5-----|-3--------3--|
|-------------|-------------|-------------|-------------|

  Q  Q  Q  Q    Q  Q  Q  q    Q  Q  Q  Q    Q  Q  Q  q
|-------------|-------------|-------------|-------------||
|-------------|-------------|-------------|-------------||
|-7-----5-----|-3--------3--|-7-----5-----|-3--------2--||
|-------------|-------------|-------------|-------------||

   1st Solo,Repeat= 2nd Solo
    Q  E E E E E E    E E E E E E E E   Q  E E E E E E   E E E E E E E E
||-----------------|------------------|----------------|------------------|
||o----------------|-10---9---7h9-7h9-|----------------|-9---7---5h7-5h7--|
||o-7--7-7-7-7-7-7-|----7---7---------|-5--5-5-5-5-5-5-|---5---5----------|
||-----------------|------------------|----------------|------------------|

  Q  E E E E E E   E E E E E E E E   Q  E E E E Q    E E Q  E E Q
|----------------|-----------------|---------------|----------------||
|----------------|-5---5---2h4-2h4-|---------------|---------------o||
|-3--3-3-3-3-3-3-|---3---3---------|-2--2-2-2-2-2--|-3-3-3--5-5-5--o||
|----------------|-----------------|---------------|----------------||

  Q  Q  Q  Q    Q  Q  Q  Q    Q  Q  Q  Q    W
|-------------|-------------|-------------|------|
|-------------|-------------|-------------|------|
|-7-----------|-7-----------|-3-----------|-3----|
|-------------|-------------|-------------|------|

  Q  Q  Q  Q    Q  Q  Q  Q    Q  Q  Q  Q    Q  Q  H
|-------------|-------------|-------------|-5----------|
|-------------|-------------|-------------|----5-------|
|-7-----------|-7-----------|-3-----------|-------3----|
|-------------|-------------|-------------|------------|

    S S S S S S S S S S S S S S S S   S S S S S S S S S S S S S S S S
||----------------------------------|----------------------------------|
||o---------------------------------|----------------------------------|
||o-7-7-7-7-7-7-7-7-7-7-7-7-7-7-7-7-|-7-7-7-7-7-7-7-7-7-7-7-7-7-7-7-7--|
||----------------------------------|----------------------------------|

  S S S S S S S S S S S S S S S S   S S S S S S S S S S S S S S S S
|---------------------------------|----------------------------------||
|---------------------------------|---------------------------------o||
|-3-3-3-3-3-3-3-3-3-3-3-3-3-3-3-3-|-3-3-3-3-3-3-3-3-3-3-3-3-3-3-3-3-o||
|---------------------------------|----------------------------------||

    S S S S S S S S S S S S S S S S   S S S S S S S S S S S S S S S S
||----------------------------------|----------------------------------|
||o---------------------------------|----------------------------------|
||o---------------------------------|----------------------------------|
||--3-3-3-3-3-3-3-3-3-3-3-3-3-3-3-3-|-3-3-3-3-3-3-3-3-3-3-3-3-3-3-3-3--|

  S S S S S S S S S S S S S S S S   S S S S S S S S S S S S S S S S
|---------------------------------|----------------------------------||
|---------------------------------|---------------------------------o||
|-5-5-5-5-5-5-5-5-5-5-5-5-5-5-5-5-|-5-5-5-5-5-5-5-5-5-5-5-5-5-5-5-5-o||
|---------------------------------|----------------------------------||

  S S S S S S S S S S S S S S S S   S S S S S S S S S S S S S S S S
|---------------------------------|---------------------------------|
|---------------------------------|---------------------------------|
|-7-7-7-7-7-7-7-7-7-7-7-7-7-7-7-7-|-7-7-7-7-7-7-7-7-7-7-7-7-7-7-7-7-|
|---------------------------------|---------------------------------|

  S S S S S S S S S S S S S S S S   S S S S S S S S S S S S S S S S
|---------------------------------|---------------------------------|
|---------------------------------|---------------------------------|
|-3-3-3-3-3-3-3-3-3-3-3-3-3-3-3-3-|-3-3-3-3-3-3-3-3-3-3-3-3-3-3-3-3-|
|---------------------------------|---------------------------------|

    S S S S S S S S S S S S S S S S     q  q  q  q    q  q  q  q
||-----------------------------------||-------------|-------------|
||o---------------------------------o||-------------|-------------|
||o-7-7-7-7-7-7-7-7-7-7-7-7-7-7-7-7-o||-3--3--3--3--|-3--3--3--3--|
||-----------------------------------||-------------|-------------|

 Lead Guitar Solo
  S S S S S S S S S S S S S S S S   S S S S S S S S S S S S S S S S
|---------------------------------|---------------------------------|
|---------------------------------|---------------------------------|
|-7-7-7-7-7-7-7-7-7-7-7-7-7-7-7-7-|-7-7-7-7-7-7-7-7-7-7-7-7-7-7-7-7-|
|---------------------------------|---------------------------------|

  S S S S S S S S S S S S S S S S   W
|---------------------------------|------|
|---------------------------------|------|
|-7-7-7-7-7-7-7-7-7-7-7-7-7-7-7-7-|-3----|
|---------------------------------|------|

  S S S S S S S S S S S S S S S S   S S S S S S S S S S S S S S S S
|---------------------------------|---------------------------------|
|---------------------------------|---------------------------------|
|-7-7-7-7-7-7-7-7-7-7-7-7-7-7-7-7-|-7-7-7-7-7-7-7-7-7-7-7-7-7-7-7-7-|
|---------------------------------|---------------------------------|

  S S S S S S S S S S S S S S S S   Q  E H    +E
|---------------------------------|---------------|
|---------------------------------|---------------|
|-7-7-7-7-7-7-7-7-7-7-7-7-7-7-7-7-|-3--3-5----(5)-|
|---------------------------------|---------------|

  E E E E E E E E   E E E E E E E E   E E E E E E E E   W
|-----------------|-----------------|-----------------|------|
|-----------------|-----------------|-----------------|------|
|-----------------|-3-3-3-3-3-3-3-3-|-3-3-3-3-3-3-3-3-|------|
|-5-5-5-5-5-5-5-5-|-----------------|-----------------|-3----|

  E E E E E E E E   E E E E E E E E   E E E E E E E E   W
|-----------------|-----------------|-----------------|------|
|-----------------|-----------------|-----------------|------|
|-----------------|-3-3-3-3-3-3-3-3-|-7-7-7-7-7-7-7-7-|-5----|
|-5-5-5-5-5-5-5-5-|-----------------|-----------------|------|

    Q  Q  E E E E   Q  Q  E E E E         Q  Q  E E E E   Q  Q  E E E E
||----------------|----------------||-||----------------|----------------||
||o---------------|---------------o||-||o---------------|---------------o||
||o-7--7--7-7-7-7-|-7--7--7-7-7-7-o||-||o---------------|---------------o||
||----------------|----------------||-||--3--3--3-3-3-3-|-3--3--3-3-3-3--||

    Q  Q  E E E E   Q  Q  E E E E         Q  Q  E E E E   Q  Q  E E E E
||----------------|----------------||-||----------------|----------------||
||o---------------|---------------o||-||o---------------|---------------o||
||o-3--3--3-3-3-3-|-3--3--3-3-3-3-o||-||o---------------|---------------o||
||----------------|----------------||-||--3--3--3-3-3-3-|-3--3--3-3-3-3--||

  q  Q  q  Q    q  Q  q  Q    q  Q  q  Q    q  Q  S  S  S  S  S  S  S  S
|-------------|-------------|-------------|------------------------------|
|-------------|-------------|-------------|---------12-12-12-12-12-12-12-|
|-7-----5-----|-3-----2-----|-0-----2-----|-3----------------------------|
|-------------|-------------|-------------|------------------------------|

  Q  Q  E E E E   Q  Q  E E E E   Q  Q  E E E E   Q  Q  E E E E
|---------------|---------------|---------------|---------------|
|---------------|---------------|---------------|---------------|
|-3--3--3-3-3-3-|-3--3--3-3-3-3-|---------------|---------------|
|---------------|---------------|-3--3--3-3-3-3-|-3--3--3-3-3-3-|

  Q  Q  E E E E   Q  Q  E E E E   Q  Q  E E E E   Q  Q  E E E E
|---------------|---------------|---------------|---------------|
|---------------|---------------|---------------|---------------|
|---------------|---------------|-5--5--5-5-5-5-|-5--5--5-5-5-5-|
|-5--5--5-5-5-5-|-5--5--5-5-5-5-|---------------|---------------|

 Chorus Solo
  W          W          W          W
|----------|----------|----------|----------|
|----------|----------|----------|----------|
|----------|-5--------|-7--------|-3--------|
|-3--------|----------|----------|----------|

  S S S S S S S S S S S S S S S S
|-----------------------------------|
|-----------------------------------|
|-----------------------------------|
|-3-3-3-3-3-3-3-3-3-3-3-3-3-3-3-3---|

  S S S S S S S S S S S S S S S S   W          W
|---------------------------------|----------|------|
|---------------------------------|----------|------|
|---------------------------------|-3--------|-5----|
|-3-3-3-3-3-3-3-3-3-3-3-3-3-3-3-3-|----------|------|

  W          W          W          W
|----------|----------|----------|----------|
|----------|----------|----------|----------|
|----------|-5--------|-7--------|-3--------|
|-3--------|----------|----------|----------|

  S S S S S S S S S S S S S S S S
|-----------------------------------|
|-----------------------------------|
|-3-3-3-3-3-3-3-3-3-3-3-3-3-3-3-3---|
|-----------------------------------|

  S S S S S S S S S S S S S S S S   W          +W
|---------------------------------|----------|--------||
|---------------------------------|----------|--------||
|-3-3-3-3-3-3-3-3-3-3-3-3-3-3-3-3-|-5--------|-(5)----||
|---------------------------------|----------|--------||

 Acapella Chorus
  q  Q  Q  Q    Wx5          W          W
|-------------|------------|----------|------||
|-------------|------------|----------|------||
|-------------|------------|-3--------|-5----||
|-3-----------|------------|----------|------||

 Chorus
  W          W          W          W          S S S S S S S S S S S S S S S S
|----------|----------|----------|----------|----------------------------------|
|----------|----------|----------|----------|----------------------------------|
|----------|-7--------|-9--------|-5--------|----------------------------------|
|-5--------|----------|----------|----------|-5-5-5-5-5-5-5-5-5-5-5-5-5-5-5-5--|

  S S S S S S S S S S S S S S S S   W          W
|---------------------------------|----------|------|
|---------------------------------|----------|------|
|---------------------------------|-5--------|-7----|
|-5-5-5-5-5-5-5-5-5-5-5-5-5-5-5-5-|----------|------|

  W          W          W          W
|----------|----------|----------|------||
|----------|----------|----------|------||
|----------|-7--------|-9--------|-5----||
|-5--------|----------|----------|------||

 Outro
  Q  Q  E E Q    E E E E S S S S S S S S
|-7------------|-------------------------|
|----7---------|-7-------------6-7-9-7-6-|
|-------5---5--|---9-7-6-6-7-9-----------|
|---------5----|-------------------------|

  S S S S S S S S S S S S S S S S   E S  S  S S  S  S  S  S Q.
|---------------------------------|-------------------------------|
|---------------------------------|-------------------------------|
|-9-9-9-9-9-9-9-9-9-9-9-9-9-9-9-9-|-9---------9-11-12-14-12-9-----|
|---------------------------------|---9-10-12---------------------|

  Q  Q  Q  Q    Q  Q  Q  Q
|-------------|-------------|
|-------------|-------------|
|-5-----------|-7-----------|
|-------------|-------------|

                                       |-3-|

  E  E  E  E  S  S  S  S  S  S  S  S   Q Q Q H
|------------------------------------|-------------*|
|---------------------16-14-12-------|-------------*|
|-9-12-14-12-16-14-12----------16-14-|-9-9-7-9\----*|
|------------------------------------|-------------*|

***************************************************************************************

***************************************************************************************
						
# Artist Title Tabdesignator