Coheed And Cambria

The Willing Well Iifear Through The Eyes Of Madness


							
Verse
 1/8 6/8

  E   Q  E E E E   E E E Q  E   Q  E E E E   E E E E E E
|---|------7---7-|-6-4-0------|------------|-------------|
|---|----7-------|------------|------5---5-|-9-7-5-4-5-7-|
|-5-|-5----------|------------|----5-------|-------------|
|---|------------|-------5--3-|-3----------|-------------|

  Q  E E E E   E E E Q  E   Q  E E E E   E E E E E E
|------7---7-|-6-4-0------|------------|-----------7-|
|----7-------|------------|------5---5-|-9-7-5-4-5---|
|-5----------|------------|----5-------|-------------|
|------------|-------5--3-|-3----------|-------------|

  Q  E E E E   E E E Q  E   Q  E E E E   E E E E E E
|------7---7-|-6-4-0------|------------|-------------|
|----7-------|------------|------5---5-|-9-7-5-4-5---|
|-5----------|------------|----5-------|-----------0-|
|------------|-------5--3-|-3----------|-------------|

  Q  E E E E   E E E Q  E   Q  E E E E   E E E E E E
|------7---7-|-6-4-0------|------------|-------------|
|----7-------|------------|------5---5-|-9-7-5-4-5-5-|
|-5----------|------------|----5-------|-------------|
|------------|-------5--3-|-3----------|-------------|

  Q  E E E E   E E E Q  E   Q  E E E E   E E E E E E
|------7---7-|-6-4-0------|------------|-------------|
|----7-------|------------|------5---5-|-9-7-5-9-7-5-|
|-5----------|------------|----5-------|-------------|
|------------|-------5--3-|-3----------|-------------|

  E E E E E E   E E E Q  E   Q  E E E E   E E E  E E E
|-----0-7---7-|-6-4-0------|------------|--------------|
|---4---------|------------|------5---5-|-9-7-5--------|
|-5-----------|------------|----5-------|-------10-9-7-|
|-------------|-------5--3-|-3----------|--------------|

  Q  E E E E   E E E Q  E   Q  E E E E   E E E E E E
|------7---7-|-6-4-0------|------------|-------------|
|----7-------|------------|------5---5-|-9-7-5-9-7-5-|
|-5----------|------------|----5-------|-------------|
|------------|-------5--3-|-3----------|-------------|

  Q  E E E E   E E E Q  E   Q  E E E E   E E E E E E
|------7---7-|-6-4-0------|------------|-------------|
|----7-------|------------|------5---5-|-------------|
|-5----------|------------|----5-------|-------------|
|------------|-------5--3-|-3----------|-3-5-7-3-5-7-|

  Q  E E E E   E E E Q  E   Q  E E E E   E E E E E E
|------7---7-|-6-4-0------|------------|-------------|
|----7-------|------------|------5---5-|-9-7-5-4-5-7-|
|-5----------|------------|----5-------|-------------|
|------------|-------5--3-|-3----------|-------------|

  E E E E E E   E E E Q  E   Q  E E E E   Q  E E E E
|-----0-7---7-|-6-4-0------|------------|------------||
|---4---------|------------|------5-----|------5-----||
|-5-----------|------------|----5-----5-|----5-----5-||
|-------------|-------5--3-|-3----------|-3----------||

   Chorus
    Q  E Q  E   +H.        Q  E Q  E   Q  H
||------------|----------|-----------|---------|
||o-----------|----------|-----------|---------|
||o----9------|----------|-----------|---------|
||--7----7--0-|-(0)------|-3--0-3--0-|-5--0----|

  Q  E Q  E   +H.        Q  E Q  E   Q  Q.   E
|-----------|----------|-----------|-----------|
|-----------|----------|-----------|-----------|
|-9----9----|----------|-----------|-----------|
|----7----0-|-(0)------|-3--0-3--0-|-5--0----0-|

                                        To Coda
    E E H      H    E E  3x E E H      q  q  E E
||-----------|-----------||----------|-9--7--6----||
||o----------|----------o||----------|---------6-o||
||o----------|----------o||----------|-----------o||
||--3--------|--------0--||-3--------|------------||

|---------|----------|----------|--------||
|-9--7----|-(7)------|-(7)------|-(7)----||
|---------|----------|----------|--------||
|---------|----------|----------|--------||

 Verse
  Q  E E E E   E E E Q  E   Q  E E E E   E E E E E E
|------7---7-|-6-4-0------|------------|-------------|
|----7-------|------------|------5---5-|-9-7-5-9-7-5-|
|-5----------|------------|----5-------|-------------|
|------------|-------5--3-|-3----------|-------------|

  E E E E E E   E E E Q  E   Q  E E E E   E E E E E E
|-----0-7---7-|-6-4-0------|------------|-------------|
|---4---------|------------|------5---5-|-9-7-5-4-5-7-|
|-5-----------|------------|----5-------|-------------|
|-------------|-------5--3-|-3----------|-------------|

  Q  E E E E   E E E Q  E   Q  E E E E   E E E E E E
|------7---7-|-6-4-0------|------------|-------------|
|----7-------|------------|------5---5-|-------------|
|-5----------|------------|----5-------|-------------|
|------------|-------5--3-|-3----------|-3-5-7-3-5-7-|

  Q  E E E E   E E E Q  E   Q  E E E E   E E E E E E
|------7---7-|-6-4-0------|--------4---|-------------|
|----7-------|------------|------5---7-|-5-4---------|
|-5----------|------------|----5-------|-----5-4-2-4-|
|------------|-------5--3-|-3----------|-------------|

  E E E E E E   E E E Q  E   Q  E E E E   E E E E E E
|-----0-7---7-|-6-4-0------|------------|-------------|
|---4---------|------------|------5---5-|-9-7-5-4-5-7-|
|-5-----------|------------|----5-------|-------------|
|-------------|-------5--3-|-3----------|-------------|

  Q  E E E E   E E E Q  E   Q  E E E E   E E E E E E
|------7---7-|-6-4-0------|------------|-------------|
|----7-------|------------|------5---5-|-9-7-5-9-7-5-|
|-5----------|------------|----5-------|-------------|
|------------|-------5--3-|-3----------|-------------|

  Q  E E E E   E E E Q  E   Q  E E E E   E E E E E E
|------7---7-|-6-4-0------|------------|-------------|
|----7-------|------------|------5---5-|-9-7-5-4-5-7-|
|-5----------|------------|----5-------|-------------|
|------------|-------5--3-|-3----------|-------------|

                                         D.S. al Coda
  E E E E E E   E E E Q  E   Q  E Q  E   E E E E E E
|-----0-7---7-|-6-4-0------|---------9-|--------------||
|---4---------|------------|------5----|-7-5-4--------||
|-5-----------|------------|----5------|-------7-5-4--||
|-------------|-------5--3-|-3---------|--------------||

  Q  H      +H.        +H.        +H     +E  E
|---------|----------|----------|--------------||
|-9--7----|-(7)------|-(7)------|-(7)----(7)---||
|---------|----------|----------|--------------||
|---------|----------|----------|------------7-||

 Interlude
  E E E E E E   E E E E E E   E E E E E E   E E E E E E
|-------------|-------------|-------------|-------------|
|-------------|-------------|-------------|-------------|
|-------------|-------------|-------------|-------------|
|-7-7-7-7-7-7-|-7-7-7-7-7-7-|-7-7-7-7-7-7-|-7-7-7-7-7-7-|

  E E E E E E   E E E E E E   E E E E E E   E E E E E E
|-------------|-------------|-------------|-------------|
|-------------|-------------|-------------|-------------|
|-9-9-9-9-9-9-|-9-9-9-9-9-9-|-9-9-9-9-9-9-|-9-9-9-9-9-9-|
|-------------|-------------|-------------|-------------|

  E E E E E E   E E E E E E   E E E E E E
|-------------|-------------|-------------|
|-------------|-------------|-------------|
|-------------|-------------|-------------|
|-7-7-7-7-7-7-|-7-7-7-7-7-7-|-7-7-7-7-7-7-|

  E E E E E E   E E E E E E   E E E E E E
|-------------|-------------|-------------||
|-------------|-------------|-------------||
|-------------|-------5-5-5-|-4-4-4-------||
|-7-7-7-7-7-7-|-3-3-3-------|-------5-5-5-||

   Bridge
    E E E E E E   E E E E E E   E E E E E E   E E E E E E
||--------------|-------------|-------------|-------------|
||o-------------|-------------|-------------|-------------|
||o-------------|-------------|-------------|-------------|
||--7-7-7-7-7-7-|-7-7-7-7-7-7-|-7-7-7-7-7-7-|-7-7-7-7-7-9-|

   E  E  E  E  E  E    E  E  E  E  E  E
|-------------------|-------------------|
|-------------------|-------------------|
|-------------------|-------------------|
|-10-10-10-10-10-10-|-10-10-10-10-10-10-|

   E  E  E  E  E  E    E  E  E  E  E  E
|-------------------|-------------------|
|-------------------|-------------------|
|-------------------|-------------------|
|-10-10-10-10-10-10-|-10-10-10-10-10-10-|

  E E E E E E   E E E E E E   E E E E E E   E E E E E E
|-------------|-------------|-------------|-------------|
|-------------|-------------|-------------|-------------|
|-------------|-------------|-------------|-------------|
|-3-3-3-3-3-3-|-3-3-3-3-3-3-|-3-3-3-3-3-3-|-3-3-3-3-3-3-|

  E E E E E E   E E E E E E   E E E E E E   E E E E E E
|-------------|-------------|-------------|--------------||
|-------------|-------------|-------------|-------------o||
|-5-5-5-5-5-5-|-5-5-5-5-5-5-|-------------|-------------o||
|-------------|-------------|-5-5-5-5-5-5-|-5-5-5-5-5-5--||

   Breakdown
    E E E E Q    Q.   E E E   E E E E E E   E E E E E E
||-------------|------------|-------------|--------------||
||o------------|------------|-------------|-------------o||
||o------------|------------|-------5-5-5-|-4-4-4-------o||
||--7-7-7-7----|------7-7-7-|-3-3-3-------|-------5-5-5--||

 Guitar Break
  E  E E E  E E    E  E E  E  E E   E  E E E  E E    E  E E  E E E
|---------------|-----------------|---------------|----------------|
|---------------|-----------------|---------------|----------------|
|--------4--4-4-|--5--5-5--7--7-7-|-4--4-4-2--2-2-|--5--5-5--5-4-2-|
|-2--2-2--------|-----------------|---------------|----------------|

| Q.     Q.        Q.      Q.       Q.     Q.        Q.      E E E
|--------9------|-10------12------|--------7------|-10------10-9-7-|
|--------9------|-10------12------|--------7------|-10------10-9-7-|
|--------6------|--7-------9------|--------4------|--7-------7-6-4-|
|---------------|-----------------|---------------|----------------|
|---------------|-----------------|---------------|----------------|
|---------------|-----------------|---------------|----------------|

  E  E E E  E E    E  E E  E  E E   E  E E E  E E    E  E E  E E E
|---------------|-----------------|---------------|----------------|
|---------------|-----------------|---------------|----------------|
|--------4--4-4-|--5--5-5--7--7-7-|-4--4-4-2--2-2-|--5--5-5--5-4-2-|
|-2--2-2--------|-----------------|---------------|----------------|

| Q.     Q.        Q.      Q.       Q.     Q.        Q.      E E E
|--------9------|-10------12------|--------7------|-10------10-9-7-|
|-7------9------|-10------12------|--------7------|-10------10-9-7-|
|-6------6------|--7-------9------|--------4------|--7-------7-6-4-|
|-4-------------|-----------------|---------------|----------------|
|---------------|-----------------|---------------|----------------|
|---------------|-----------------|---------------|----------------|

     E  E E  E  E E    E  E E  E   E  E   E  E E  E  E E    E  E E  E  E  E
||------------------|-------------------|----------------|-------------------||
||o-----------------|-------------------|----------------|------------------o||
||o----------7--7-7-|--8--8-8-10--10-10-|-7--7-7--5--5-5-|--8--8-8--8--7--5-o||
||---5--5-5---------|-------------------|----------------|-------------------||

|    Q.      Q.        Q.      Q.         Q.      Q.        Q.      E  E  E
||----------12------|-13------15--------|--------10------|-13------13-12-10--||
||o-10------12------|-14------15--------|--------10------|-14------14-12-10-o||
||---9-------9------|-10------12--------|---------7------|-10------10--9--7--||
||---7--------------|-------------------|----------------|-------------------||
||o-----------------|-------------------|----------------|------------------o||
||------------------|-------------------|----------------|-------------------||

    E  E E E  E E    E  E E  E  E E   E  E E E  E E    E  E E  E E E
||----------------|-----------------|---------------|-----------------||
||o---------------|-----------------|---------------|----------------o||
||o--------4--4-4-|--5--5-5--7--7-7-|-4--4-4-2--2-2-|--5--5-5--5-4-2-o||
||--2--2-2--------|-----------------|---------------|-----------------||

|   Q.     Q.        Q.      Q.       Q.     Q.        Q.      E E E
||---------9------|-10------12------|--------7------|-10------10-9-7--||
||o-7------9------|-10------12------|--------7------|-10------10-9-7-o||
||--6------6------|--7-------9------|--------4------|--7-------7-6-4--||
||--4-------------|-----------------|---------------|-----------------||
||o---------------|-----------------|---------------|----------------o||
||----------------|-----------------|---------------|-----------------||

   E  E E  E  E E    E  E E  E   E  E   E  E E  E  E E    E  E E  E  E  E
|-----------------|-------------------|----------------|------------------|
|-----------------|-------------------|----------------|------------------|
|----------7--7-7-|--8--8-8-10--10-10-|-7--7-7--5--5-5-|--8--8-8--8--7--5-|
|--5--5-5---------|-------------------|----------------|------------------|

|  Q.      Q.        Q.      Q.         Q.      Q.        Q.      E  E  E
|---------12------|-13------15--------|--------10------|-13------13-12-10-|
|-10------12------|-14------15--------|--------10------|-14------14-12-10-|
|--9-------9------|-10------12--------|---------7------|-10------10--9--7-|
|--7--------------|-------------------|----------------|------------------|
|-----------------|-------------------|----------------|------------------|
|-----------------|-------------------|----------------|------------------|

   E  E E  E  E E    E   E  E  E   E  E   E  E E  E  E E    E   E  E  E  E  E
|-----------------|---------------------|----------------|--------------------||
|----------9--9-9-|-10--10-10-12--12-12-|-9--9-9--7--7-7-|-10--10-10-10--9--7-||
|--7--7-7---------|---------------------|----------------|--------------------||
|-----------------|---------------------|----------------|--------------------||

|  Q.      Q.        Q.        Q.         Q.      Q.        Q.        E  E  E
|---------12------|-13--------15--------|--------10------|-13--------13-12-10-||
|-10------12------|-14--------15--------|--------10------|-14--------14-12-10-||
|--9-------9------|-10--------12--------|---------7------|-10--------10--9--7-||
|--7--------------|---------------------|----------------|--------------------||
|-----------------|---------------------|----------------|--------------------||
|-----------------|---------------------|----------------|--------------------||

   Breakdown
    Q  E Q  E   Q  E Q  E   Q  E Q  E   Q  E Q  E
||------------|-----------|-----------|------------|
||o-----------|-----------|-----------|------------|
||o-3----3----|-3----3----|-2----2----|-2----2-----|
||------------|-----------|-----------|------------|

  Q  E Q  E   Q  E Q  E   E E E E E E   E E E E E E
|-----------|-----------|-------------|-------------|
|-----------|-----------|-5-7-5-4-----|-4-----------|
|-2----2----|-2----2--7-|---------7-5-|---7-5-------|
|-----------|-----------|-------------|-------7-5-0-|

  Q  E Q  E   Q  E Q  E   Q  E Q  E   Q  E Q  E
|-----------|-----------|-----------|-----------|
|-----------|-----------|-----------|-----------|
|-3----3----|-3----3----|-2----2----|-2----2----|
|-----------|-----------|-----------|-----------|

  Q  E Q  E   Q  E Q  E   Q  Q  Q    Q  Q  Q
|-----------|-----------|----------|-----------||
|-----------|-----------|----------|----------o||
|-2----2----|-2----2----|-9--7--5--|----------o||
|-----------|-----------|----------|-7--5--3---||

  E. E E E E S   +S  E E E E E S   +S  E E E E E S   +S  E E E E E S
|--------------|-----------------|-----------------|-----------------|
|--------------|-----------------|-----------------|-----------------|
|--------------|-----------------|-----------------|-----------------|
|----0-0---0-0-|-(0)---0-0---0-0-|-(0)---0-0---0-0-|-(0)---0-0---0-0-|

  +S  E E E E E S   +S  E E E E E S   +S  E E E E E S   +S   Q   S Q.
|-----------------|-----------------|-----------------|-----------------||
|-----------------|-----------------|-----------------|-----------------||
|-----------------|-----------------|-----------------|-----12\---------||
|-(0)---0-0---0-0-|-(0)---0-0---0-0-|-(0)---0-0---0-0-|-(0)-------------||

   Guitar Break
    E  E E E Q     E  E E  E  Q     E  E E E Q      Q   Q  Q
||--------------|----------------|--------------|-------------|
||o-------------|----------------|--------------|---7---6-----|
||o-------------|----------------|--------------|----------7--|
||--2--2-2-2----|--2--2-2--2-----|--2--2-2-2----|-------------|

||--------------|--9------10-----|-12-----------|-(12)--------|
||o-------------|-10------10-----|-12-----------|-(12)--------|
||--------------|--6-------7-----|--9-----------|--(9)--------|
||--------------|-16------19-----|-18-----------|-(18)--------|
||o-------------|----------------|--------------|-------------|
||--------------|----------------|--------------|-------------|

  E  E E E Q     E  E E  E  Q     E  E E E Q     Q   Q  Q
|-------------|----------------|--------------|------------|
|-------------|----------------|--------------|--7---6-----|
|-------------|----------------|--------------|---------7--|
|-2--2-2-2----|--2--2-2--2-----|--2--2-2-2----|------------|

|-------------|--9------10-----|-12-----------|-14---------|
|-------------|-10------10-----|-12-----------|-14---------|
|-------------|--6-------7-----|--9-----------|-11---------|
|-------------|-16------19-----|-18-----------|-21---------|
|-------------|----------------|--------------|------------|
|-------------|----------------|--------------|------------|

   Q   E Q  E     Q   E Q  E    Q   E Q  E     E  E E Q  E
|-------------|--------------|-------------|---------------|
|-------------|--------------|-------------|---------------|
|-------------|--------------|-----------2-|---0-----------|
|--5---5-5--0-|---5---5-5--0-|--5---5-5----|------4-2-0--0-|

|-12----------|-(12)---------|-10----------|-(10)----------|
|-12----------|-(12)---------|-10----------|-(10)----------|
|--9----------|--(9)---------|--7----------|--(7)----------|
|-19----------|-(19)---------|-18----------|-(18)----------|
|-------------|--------------|-------------|---------------|
|-------------|--------------|-------------|---------------|

   Q   E Q  E     Q   E Q  E   Q   E E E E    E  E E E  E E    Q.   Q.
|-------------|--------------|-------------|----------------|-------------||
|-------------|--------------|-------------|--------------4-|--6---------o||
|-------------|--------------|-------------|-------5-7--9---|-------7\---o||
|--5---5-5--0-|---5---5-5--0-|-5---5-5-0-5-|--7--9----------|-------------||

|--9----------|--(9)---------|-------------|--9------7------|-(7)---------||
|-10----------|-(10)---------|-------------|-10------7------|-(7)--------o||
|--6----------|--(6)---------|-------------|--6------4------|-(4)---------||
|-16----------|-(16)---------|-------------|----------------|-------------||
|-------------|--------------|-------------|----------------|------------o||
|-------------|--------------|-------------|----------------|-------------||

 Interlude
   E  E E E Q      E  E E E Q    E  E E E Q    E  E E E E E
|--------------|---------------|-------------|--------------|
|--------------|---------------|-------------|--------------|
|--8--8-8-8----|---8--8-8-8----|-8--8-8-8----|-8--8-8-8-8-8-|
|--------------|---------------|-------------|--------------|

|-10-----------|-(10)----------|-------------|--------------|
|-10-----------|-(10)----------|-------------|--------------|
|--7-----------|--(7)----------|-------------|--------------|
|--------------|---------------|-------------|--------------|
|--------------|---------------|-------------|--------------|
|--------------|---------------|-------------|--------------|

  E E E E Q    E E E E Q     E  E  E  E  E  E    E  E  E  E  E  E
|------------|------------|-------------------|--------------------|
|------------|------------|----12----------12-|----12-------10-----|
|-7-7-7-7----|-7-7-7-7----|-10----10-10-10----|-10----10-10----10--|
|------------|------------|-------------------|--------------------|

  E E E E Q    E E E E Q    E E E E Q    Q   Q  Q
|------------|------------|------------|------------|
|------------|------------|------------|-7----------|
|-8-8-8-8----|-8-8-8-8----|-8-8-8-8----|----10--8---|
|------------|------------|------------|------------|

  E E E E Q    E E E E Q     E  E  E  E  E  E    E  E  E  Q   E
|------------|------------|-------------------|------------------|
|------------|------------|----12----------12-|----12------------|
|-7-7-7-7----|-7-7-7-7----|-10----10-10-10----|-10----10-10\-----|
|------------|------------|-------------------|------------------|

  E E E E Q    E E E E Q    E E E E Q    E E E E E E
|------------|------------|------------|--------------|
|------------|------------|------------|--------------|
|------------|------------|------------|--------------|
|-8-8-8-8----|-8-8-8-8----|-8-8-8-8----|-8-8-8-8-8-8--|

  E E E E Q    E E E E Q     E  E  E  E  E  E    E  E  E  E  E  E
|------------|------------|-------------------|--------------------|
|------------|------------|-------------------|--------------------|
|------------|------------|-------------------|--------------------|
|-7-7-7-7----|-7-7-7-7----|-10-10-10-10-10-10-|-10-10-10-10-10-10--|

  E E E E Q    E E E E Q    E E E E Q    Q   Q  Q
|------------|------------|------------|------------|
|------------|------------|------------|------------|
|------------|------------|------------|-7----------|
|-8-8-8-8----|-8-8-8-8----|-8-8-8-8----|----10--8---|

  E E E E Q    E E E E Q     E  E  E  E  E  E   E E E  E E E
|------------|------------|-------------------|---------------||
|------------|------------|-------------------|---------------||
|------------|------------|----12-------------|-7-8-7---------||
|-7-7-7-7----|-7-7-7-7----|-10----10-10-10-10-|-------10-8-7--||

   Outro Part 1
    E E E E E E   E E E E E E   E E E E E E   E E E E E E
||--------------|-------------|-------------|-------------|
||o-------------|-------------|-------------|-------------|
||o-------------|-------------|-------------|-------------|
||--5-5-5-5-5-5-|-5-5-5-5-5-5-|-5-5-5-5-5-5-|-5-5-5-5-5-5-|

  E E E E E E   E E E E E E   E E E E E E   E E E E E E
|-------------|-------------|-------------|--------------|
|-------------|-------------|-------------|--------------|
|-3-3-3-3-3-3-|-3-3-3-3-3-3-|-3-3-3-3-3-3-|-3-3-3-3-3-3--|
|-------------|-------------|-------------|--------------|

  E E E E E E   E E E E E E   E E E E E E   E E E E E E
|-------------|-------------|-------------|--------------|
|-------------|-------------|-------------|--------------|
|-------------|-------------|-------------|--------------|
|-3-3-3-3-3-3-|-3-3-3-3-3-3-|-3-3-3-3-3-3-|-3-3-3-3-3-3--|

  E E E E E E   E E E E E E   E E E E E E
|-------------|-------------|-------------|
|-------------|-------------|-------------|
|-------------|-------------|-------------|
|-1-1-1-1-1-1-|-1-1-1-1-1-1-|-1-1-1-3-3-3-|

  E E E E E E     E E E E E E   E E E E E E
|--------------||-------------|-------------||
|-------------o||-------------|-------------||
|-------------o||-------------|-------------||
|-5-5-5-7-7-7--||-1-1-1-0-0-0-|-1-1-1-0-0-0-||

 Outro Part 2
   E  E E  E  E E    E  E E  E  E E    E  E E  E  E E    E  E E  E  E E
|-----------------|-----------------|-----------------|------------------|
|-----------------|-----------------|-----------------|------------------|
|-----------------|-----------------|-----------------|------------------|
|--5--5-5--5--5-5-|--5--5-5--5--5-5-|--5--5-5--5--5-5-|--5--5-5--5--5-5--|

|-----------------|-----------------|-----------------|---------12-------|
|-10------12------|-13------12------|-10------12------|-13---------------|
|---------21------|---------21------|---------21------|------------------|
|-----------------|-----------------|-----------------|------------------|
|-----------------|-----------------|-----------------|------------------|
|-----------------|-----------------|-----------------|------------------|

   Q.      E  Q      Q.      E  Q      Q.      E  Q
    E  E E  E E E     E  E E  E E E    E  E E  E  E E    E  E E  E  E E
|-----------------|-----------------|-----------------|------------------|
|-----------------|-----------------|-----------------|------------------|
|---3--3-3--3-3-3-|---3--3-3--3-3-3-|--3--3-3--3--3-3-|--3--3-3--3--3-3--|
|-----------------|-----------------|-----------------|------------------|

|-(12)------------|-(12)------------|-----------------|---------12-------|
|-----------------|-----------------|-10------12------|-13---------------|
|----------19-----|----------19-----|---------19------|---------19-------|
|-----------------|-----------------|-----------------|------------------|
|-----------------|-----------------|-----------------|------------------|
|-----------------|-----------------|-----------------|------------------|

    Q.      E Q       Q.      E Q      Q.      E  Q      Q.      E  Q
   E  E E  E E E     E  E E  E E E    E  E E  E  E E    E  E E  E  E E
|----------------|-----------------|-----------------|------------------|
|----------------|-----------------|-----------------|------------------|
|----------------|-----------------|-----------------|------------------|
|--3--3-3--3-3-3-|---3--3-3--3-3-3-|--3--3-3--3--3-3-|--3--3-3--3--3-3--|

|-10-------------|-(10)------------|-----------------|---------12-------|
|----------------|-----------------|-10------12------|-13---------------|
|----------------|-----------------|-----------------|------------------|
|---------21-----|----------21-----|---------21------|---------21-------|
|----------------|-----------------|-----------------|------------------|
|----------------|-----------------|-----------------|------------------|

   Q.      E Q       Q.      E Q      Q.      E  Q      Q.      E  Q
  E  E E E E E    E  E E E E E     E  E E E E E     E  E E E E E
|--------------|---------------|----------------|-----------------|
|--------------|---------------|----------------|-----------------|
|--------------|---------------|----------------|-----------------|
|-1--1-1-1-1-1-|--1--1-1-1-1-1-|---1--1-1-3-3-3-|---5--5-5-7-7-7--|

|--------------|-12------------|-(12)-----------|-(12)------------|
|--------------|---------------|----------------|-----------------|
|--------------|---------------|----------------|-----------------|
|--------------|---------------|----------------|-----------------|
|--------------|---------------|----------------|-----------------|
|--------------|---------------|----------------|-----------------|

     E  E E  E  E E    E  E E  E  E E    E  E E  E  E E    E  E E  E  E E
||------------------|-----------------|-----------------|-----------------|
||o-----------------|-----------------|-----------------|-----------------|
||o-----------------|-----------------|-----------------|-----------------|
||---5--5-5--5--5-5-|--5--5-5--5--5-5-|--5--5-5--5--5-5-|--5--5-5--5--5-5-|

||------------------|-----------------|-----------------|---------12------|
||o-10------12------|-13------12------|-10------12------|-13--------------|
||----------21------|---------21------|---------21------|-----------------|
||------------------|-----------------|-----------------|-----------------|
||o-----------------|-----------------|-----------------|-----------------|
||------------------|-----------------|-----------------|-----------------|

     Q.      E  Q      Q.      E  Q      Q.      E  Q
   E  E E  E E E     E  E E  E E E    E  E E  E  E E    E  E E  E  E E
|----------------|-----------------|-----------------|------------------|
|----------------|-----------------|-----------------|------------------|
|--3--3-3--3-3-3-|---3--3-3--3-3-3-|--3--3-3--3--3-3-|--3--3-3--3--3-3--|
|----------------|-----------------|-----------------|------------------|

|-12-------------|-(12)------------|-----------------|---------12-------|
|----------------|-----------------|-10------12------|-13---------------|
|---------19-----|----------19-----|---------19------|---------19-------|
|----------------|-----------------|-----------------|------------------|
|----------------|-----------------|-----------------|------------------|
|----------------|-----------------|-----------------|------------------|

   Q.      E Q       Q.      E Q      Q.      E  Q      Q.      E  Q
   E  E E  E E E     E  E E  E E E    E  E E  E  E E    E  E E  E  E E
|----------------|-----------------|-----------------|------------------|
|----------------|-----------------|-----------------|------------------|
|----------------|-----------------|-----------------|------------------|
|--3--3-3--3-3-3-|---3--3-3--3-3-3-|--3--3-3--3--3-3-|--3--3-3--3--3-3--|

|-10-------------|-(10)------------|-----------------|---------12-------|
|----------------|-----------------|-10------12------|-13---------------|
|----------------|-----------------|-----------------|------------------|
|---------21-----|----------21-----|---------21------|---------21-------|
|----------------|-----------------|-----------------|------------------|
|----------------|-----------------|-----------------|------------------|

   Q.      E Q       Q.      E Q      Q.      E  Q      Q.      E  Q
  E  E E E E E    E  E E E E E     E  E E E E E     E  E E E E E   3x
|--------------|---------------|----------------|------------------||
|--------------|---------------|----------------|-----------------o||
|--------------|---------------|----------------|-----------------o||
|-1--1-1-1-1-1-|--1--1-1-1-1-1-|---1--1-1-0-0-0-|---1--1-1-0-0-0---||

| H.              H.              +H.              +H.             3x
|--------------|-12------------|-(12)-----------|-(12)-------------||
|--------------|---------------|----------------|-----------------o||
|--------------|---------------|----------------|------------------||
|--------------|---------------|----------------|------------------||
|--------------|---------------|----------------|-----------------o||
|--------------|---------------|----------------|------------------||

   E  E E  E  E E    E  E E  E  E E    E  E E  E  E E    E  E E  E  E E
|-----------------|-----------------|-----------------|------------------|
|-----------------|-----------------|-----------------|------------------|
|-----------------|-----------------|-----------------|------------------|
|--5--5-5--5--5-5-|--5--5-5--5--5-5-|--5--5-5--5--5-5-|--5--5-5--5--5-5--|

|-----------------|-----------------|-----------------|---------12-------|
|-10------12------|-13------12------|-10------12------|-13---------------|
|---------21------|---------21------|---------21------|------------------|
|-----------------|-----------------|-----------------|------------------|
|-----------------|-----------------|-----------------|------------------|
|-----------------|-----------------|-----------------|------------------|

   Q.      E  Q      Q.      E  Q      Q.      E  Q
   E  E E  E E E     E  E E  E E E    E  E E  E  E E    E  E E  E  E E
|----------------|-----------------|-----------------|------------------|
|----------------|-----------------|-----------------|------------------|
|--3--3-3--3-3-3-|---3--3-3--3-3-3-|--3--3-3--3--3-3-|--3--3-3--3--3-3--|
|----------------|-----------------|-----------------|------------------|

|-12-------------|-(12)------------|-----------------|---------12-------|
|----------------|-----------------|-10------12------|-13---------------|
|---------19-----|----------19-----|---------19------|---------19-------|
|----------------|-----------------|-----------------|------------------|
|----------------|-----------------|-----------------|------------------|
|----------------|-----------------|-----------------|------------------|

   Q.      E Q       Q.      E Q      Q.      E  Q      Q.      E  Q
   E  E E  E E E     E  E E  E E E    E  E E  E  E E    E  E E  E  E E
|----------------|-----------------|-----------------|------------------|
|----------------|-----------------|-----------------|------------------|
|----------------|-----------------|-----------------|------------------|
|--3--3-3--3-3-3-|---3--3-3--3-3-3-|--3--3-3--3--3-3-|--3--3-3--3--3-3--|

|-10-------------|-(10)------------|-----------------|---------12-------|
|----------------|-----------------|-10------12------|-13---------------|
|----------------|-----------------|-----------------|------------------|
|---------21-----|----------21-----|---------21------|---------21-------|
|----------------|-----------------|-----------------|------------------|
|----------------|-----------------|-----------------|------------------|

   Q.      E Q       Q.      E Q      Q.      E  Q      Q.      E  Q
  E  E E E E E    E  E E E E E     E  E E E E E     E  E E E E E
|--------------|---------------|----------------|-----------------|
|--------------|---------------|----------------|-----------------|
|--------------|---------------|----------------|-----------------|
|-1--1-1-1-1-1-|--1--1-1-1-1-1-|---1--1-1-3-3-3-|---5--5-5-7-7-7--|

|--------------|-12------------|-(12)-----------|-(12)------------|
|--------------|---------------|----------------|-----------------|
|--------------|---------------|----------------|-----------------|
|--------------|---------------|----------------|-----------------|
|--------------|---------------|----------------|-----------------|
|--------------|---------------|----------------|-----------------|

  E E E E E E   E E E E E E   E E E E E E   E E E E E E
|-------------|-------------|-------------|--------------|
|-------------|-------------|-------------|--------------|
|-------------|-------------|-------------|--------------|
|-5-5-5-5-5-5-|-5-5-5-5-5-5-|-5-5-5-5-5-5-|-5-5-5-5-5-5--|

  E E E E E E   E E E E E E   E E E E E E   E E E E E E
|-------------|-------------|-------------|--------------|
|-------------|-------------|-------------|--------------|
|-3-3-3-3-3-3-|-3-3-3-3-3-3-|-3-3-3-3-3-3-|-3-3-3-3-3-3--|
|-------------|-------------|-------------|--------------|

  E E E E E E   E E E E E E   E E E E E E   E E E E E E
|-------------|-------------|-------------|--------------|
|-------------|-------------|-------------|--------------|
|-------------|-------------|-------------|--------------|
|-3-3-3-3-3-3-|-3-3-3-3-3-3-|-3-3-3-3-3-3-|-3-3-3-3-3-3--|

  E E E E E E   E E E E E E   E E E E E E   E E E E E E
|-------------|-------------|-------------|--------------|
|-------------|-------------|-------------|--------------|
|-------------|-------------|-------------|--------------|
|-1-1-1-1-1-1-|-1-1-1-1-1-1-|-1-1-1-3-3-3-|-5-5-5-7-7-7--|

|---------|----------|----------|--------*|
|---------|----------|----------|--------*|
|---------|----------|----------|--------*|
|-5-------|-(5)------|-(5)------|-(5)----*|

Duration Legend
---------------

W - whole; H - half; Q - quarter; E - 8th; S - 16th; T - 32nd; X - 64th; a - acciaccatura
+ - note tied to previous; . - note dotted; .. - note double dotted
Uncapitalized letters represent notes that are staccato (1/2 duration)
rests.  Multi-
bar rests are notated in the form Wxn, where n is the number of bars to rest
----------------

 b   - bend
 pb  - pre-bend
 r   - bend release (if no number after the r, then release immediately)
 s   - legato slide
 S   - shift slide
  - natural harmonic
  - artificial harmonic
n(n) - tapped harmonic
 ~   - vibrato
 T   - tap
 PM  - palm muting
\n/  - tremolo bar dip; n = amount to dip
 =   - hold bend; also acts as connecting device for hammers/pulls
 x   - on rhythm slash represents muted slash
Misc Legend
-----------

||o - repeat start

 &  - Coda
Tempo markers -  = BPM(8/16=s8/s16), where s8
						
# Artist Title Tabdesignator