Chris Duarte

My Way Down


							
-------------------------------------------------------------------------------

-------------------------------------------------------------------------------

7 String - tuned down half-step
      Intro - m.5
      Q       H.                 W                      H        H
E ||-------<>12------------|---<>L----------------|-----------------------|
B ||-------<>12------------|---<>L----------------|-----------------------|
F#||-------<>12------------|---<>L----------------|--<>12-----------------|
C#||-----------------------|----------------------|--------------1--------|
G#||-----------------------|----------------------|-----------------------|
D#||-----------------------|----------------------|-----------------------|
A#||-----------------------|----------------------|-----------------------|

  Q       Q     H            E  E  E  E  E   E  S S S S
--------------------------|-----------------------------|
--------------------------|-----------------------------|
--L-----------------------|--------------1b--1----------|
--------------------------|--------1--3---------3-3-1-3-|
--------------------------|-----3-----------------------|
-------8g13----13\--------|--1--------------------------|

  E  E  S S E  S S S S S S S S    E  E  S S E  S S S S S S S S
-------------------------------|-------------------------------|
-------------------------------|-------------------------------|
---------------1-1-------------|---------------1-1-------------|
--------1-1-3------3-0-1-1-2-3-|--------1-1-3------3-0-1-1-2-3-|
-----3-------------------------|-----3-------------------------|
--1----------------------------|--1----------------------------|

  E  E  S S E  E    E  S E.      E  E  S S S S S S S S S S S S
------------------------------|--------------------------------|
------------------------------|--------------------------------|
---------------1--3g5----1b---|----------------1-1-------------|
--------1-1-3-----------------|--------1-1-3-3-----3-0-1-1-2-3-|
-----3------------------------|-----3--------------------------|
--1---------------------------|--1-----------------------------|

  E  E  S S E  S  S E  S S S S    E  E  E  E  S S S S S S S S
-------------------------------|------------------------------|
-------------------------------|------------------------------|
---------------1h-3-1----------|--------------1-1-------------|
--------1-1-3----------3-0-1-3-|--------1--3------3-0-1-1-2-3-|
-----3-------------------------|-----3------------------------|
--1----------------------------|--1---------------------------|

                                   Verse 1
  E  S S E  S S E    E  S E.       E  S S S S S S E  E  E    S S
-------------------------------||--------------------------------|
-------------------------------||--------------------------------|
----------------1--3g5----1b---||-----------------1--1-----------|
---------1--3-3----------------||---------1-1-3-3-------3--1g3-3-|
-----3-3-----------------------||-----3-3------------------------|
--1----------------------------||--1-----------------------------|

  E  E  S S S S S S S S S S S S    E  E  E  E  S S S S S S S S
--------------------------------|------------------------------|
--------------------------------|------------------------------|
----------------1-1-------------|--------------1-1-------------|
--------1-1-3-3-----3-0-1-1-2-3-|--------1--3------3-0-1-1-2-3-|
-----3--------------------------|-----3------------------------|
--1-----------------------------|--1---------------------------|

  E  E  E  E  S S S S S S S S    E  E  E  S S S S S S S S S S
------------------------------|-------------------------------|
------------------------------|-------------------------------|
--------------1-1-------------|---------------1-1-------------|
--------1--3------3-0-1-1-2-3-|--------1--3-3-----3-0-1-1-2-3-|
-----3------------------------|-----3-------------------------|
--1---------------------------|--1----------------------------|

  E  E  E  E  S S S S S S S S    E  E  E  E  S S S S S S S S
------------------------------|------------------------------|
------------------------------|------------------------------|
--------------1-1-------------|--------------1-1-------------|
--------1--3------3-0-1-1-2-3-|--------1--3------3-0-1-1-2-3-|
-----3------------------------|-----3------------------------|
--1---------------------------|--1---------------------------|

  E  E  E  E  S  S E  S S S S    E  E  E  E  E  E  E  E
------------------------------|--------------------------|
------------------------------|--------------------------|
--------------1h-3-1----------|--------------1-----1--3--|
--------1--3----------3-0-1-3-|--------0--3-----3--------|
-----3------------------------|--1--1--------------------|
--1---------------------------|--------------------------|

  Q    E  E  S  S E  E  S S    E  E  S S S S S S S S S S S S
----------------------------|--------------------------------|
----------------------------|--------------------------------|
-------------1h-3-1---------|----------------1-1-------------|
-------0--3----------3--3-3-|--------1-1-3-3-----3-0-1-1-2-3-|
--1-------------------------|-----3--------------------------|
----------------------------|--1-----------------------------|

  E  E  E  E  S S S S S S S S    E  E  E  E  S S S S E  E
------------------------------|----------------------------|
------------------------------|----------------------------|
--------------1-1-------------|--------------1-1-----1--3--|
--------1--3------3-0-1-1-2-3-|--------0--3------3-3-------|
-----3------------------------|--1--1----------------------|
--1---------------------------|----------------------------|

  Q    E  E  S  S E  E  E     Q.     E  Q    E  E
---------------------------|-----------------------|
---------------------------|-----------------------|
-------------1h-3-1--------|-----------------------|
-------0--3----------3--3--|-----------------------|
--1------------------------|--3------3--3----3--3--|
---------------------------|-----------------------|

                                  Chorus 1
  E  E  E  E  S  S E  S S S S     E  E  E  E  S S S S S S S S
------------------------------||------------------------------|
------------------------------||------------------------------|
--2--3--2--5--3h-5-3----------||--------------1-1-------------|
----------------------5-3-----||--------1--3------3-0-1-1-2-3-|
--------------------------6-5-||-----3------------------------|
------------------------------||--1---------------------------|

  E  E  S S E  S S S S S S S S    E  E  E  E  S S S S S S S S
-------------------------------|------------------------------|
-------------------------------|------------------------------|
---------------1-1-------------|--------------1-1-------------|
--------1-1-3------3-0-1-1-2-3-|--------1--3------3-0-1-1-1-2-|
-----3-------------------------|-----3------------------------|
--1----------------------------|--1---------------------------|

  S S S S E  E  S S   E  S E.      E  S S S S E  S S S S S S S S
--------------------------------|--------------------------------|
--------------------------------|--------------------------------|
--------------------3g5----1b---|----------------1-1-------------|
--3-1-3-3-------1-1-------------|---------1-1-3------3-0-1-1-2-3-|
----------0--3------------------|-----3-3------------------------|
--------------------------------|--1-----------------------------|

  E  E  S S E  S S S S S S S S    E  E  E  S S S S S S S S S S
-------------------------------|-------------------------------|
-------------------------------|-------------------------------|
---------------1-1-------------|---------------1-1-------------|
--------1-1-3------3-0-1-1-2-3-|--------1--3-3-----3-0-1-1-2-3-|
-----3-------------------------|-----3-------------------------|
--1----------------------------|--1----------------------------|

                                   Guitar Solo 1
  E  E  E  S S S S S S S S S S     E  E  E  E  S S S S S S S S
-------------------------------||------------------------------|
-------------------------------||------------------------------|
---------------1-1-------------||--------------1-1-------------|
--------1--3-3-----3-0-1-1-2-3-||--------1--3------3-0-1-1-2-3-|
-----3-------------------------||-----3------------------------|
--1----------------------------||--1---------------------------|

  E  E  E  E    E  E  S S S S    E  E  S S E  S S S S S S S S
------------------------------|-------------------------------|
------------------------------|-------------------------------|
--------------1g3--1----------|---------------1-1-------------|
--------1--3----------3-1-3-3-|--------1-1-3------3-0-1-1-2-3-|
-----3------------------------|-----3-------------------------|
--1---------------------------|--1----------------------------|

  S S S S S S E  S S S S S S S S    E  E  E  E  S S S S S S S S
---------------------------------|------------------------------|
---------------------------------|------------------------------|
---------------------------------|--------------1-1-------------|
----------1-1----1-1-3-3-1-1-3-3-|--------1--3------3-0-1-1-2-3-|
------3-3-----3------------------|-----3------------------------|
--1-1----------------------------|--1---------------------------|

  S S S S E  E    E  E  S S S S    E  E  S S S S E  S S S S S S
--------------------------------|-------------------------------|
--------------------------------|-------------------------------|
----------------1g3--3--1-1-----|----------------1--------------|
----------1--3--------------3-3-|--------1-1-3-3----3-0-1-1-2-3-|
------3-3-----------------------|-----3-------------------------|
--1-1---------------------------|--1----------------------------|

  E  E  S S E  S S S S S S S S    E  E  E  E  S  S E  E  E
-------------------------------|----------------------------|
-------------------------------|----------------------------|
---------------1-1-------------|--------------1h-3-1--------|
--------1-1-3------3-0-1-1-2-3-|--------0--3----------3-----|
-----3-------------------------|--1--1-------------------1--|
--1----------------------------|----------------------------|

  E  E  E  E  S S E  E  E     E  E  S S E  S S S S S S S S
---------------------------|-------------------------------|
---------------------------|-------------------------------|
--------------3------------|---------------1-1-------------|
--------0--3----3----3-----|--------1-1-3------3-0-1-1-2-3-|
--L--1------------1-----1--|-----3-------------------------|
---------------------------|--1----------------------------|

  S S E  E  E  S S S S S S S S    E  E  E  E  S  S E  E  E
-------------------------------|----------------------------|
-------------------------------|----------------------------|
---------------1-1-------------|--------------1h-3-1--------|
---------1--3------3-0-1-1-2-3-|--------0--3----------3-----|
------3------------------------|--1--1-------------------1--|
--1-1--------------------------|----------------------------|

  E  E  S S E  E  E  E  E      Q.     E  Q    E  E
----------------------------|-----------------------|
----------------------------|-----------------------|
----------------------------|-----------------------|
----------------------------|-----------------------|
--L--1--1-1-1--1--1--1--1S--|--3------3--3----3--3--|
----------------------------|-----------------------|

  E  E  E  E   E  E  E  E     E  E  E  E  S S S S S S S S
---------------------------|------------------------------|
---------------------------|------------------------------|
---------------------------|--------------1-1-------------|
---------------------------|--------1--3------3-0-1-1-2-3-|
--3--3--3--3S--6--6--6--6--|-----3------------------------|
---------------------------|--1---------------------------|

  E  E  E  E  S S S S S S S S    E  E  E  E  S S S S S S S S
------------------------------|------------------------------|
------------------------------|------------------------------|
--------------1-1-------------|--------------1-1-------------|
--------1--3------3-0-1-1-2-3-|--------1--3------3-0-1-1-2-3-|
-----3------------------------|-----3------------------------|
--1---------------------------|--1---------------------------|

                                   Guitar Solo 2
  S S S S S S E  S S S S E  E      E  E  E  E  E  E  E  E
-------------------------------||--------------------------|
-------------------------------||--------------------------|
-----------------1-1-----------||--------------------------|
----------1-1-3------3-0-1--3--||--------1--3--------1--1--|
------3-3----------------------||-----3--------1--3--------|
--1-1--------------------------||--1-----------------------|

  E  E  E  E  E  E  S S S S    E  E  S S E  E  E  S S S S
----------------------------|-----------------------------|
----------------------------|-----------------------------|
----------------------------|-----------------------------|
--------1--3--------1-1-3-3-|--------1-1-3--------1-1-----|
-----3--------1--3----------|-----3---------1--3------3-3-|
--1-------------------------|--1--------------------------|

  E  E  E  E  E  S S S S S S    E  E  E  E  E  E  E.  S
-----------------------------|--------------------------|
-----------------------------|--------------------------|
-----------------------------|--------------------------|
--------1--3---------1-1-----|--------1--3--------1-----|
-----3--------1--3-3-----3-3-|-----3--------1--3------3-|
--1--------------------------|--1-----------------------|

  E  E  S S E  E  E  E  E     E  E  E  S S E  E  E  S S
---------------------------|----------------------------|
---------------------------|----------------------------|
---------------------------|----------------------------|
--------1-1-3--------1--3--|--------1--3-3-------1------|
-----3---------1--3--------|-----3---------1--3-----3-3-|
--1------------------------|--1-------------------------|

  E  S S E  S S S  S E  S  S S S    Q    E  E  S  S E  E  E
---------------------------------|---------------------------|
---------------------------------|---------------------------|
----------------1h-3-1-----------|-------------1h-3-1--------|
---------1--3-3---------3p-1-3-3-|-------0--3----------3-----|
-----3-3-------------------------|--1---------------------1--|
--1------------------------------|---------------------------|

  E  E  E  E  S S E  E  S S    S S E  E  E  S S E  E  S S
----------------------------|-----------------------------|
----------------------------|-----------------------------|
-----------1--3-1-----------|---------------1-1-----------|
--------3---------3--1------|---------1--3------3--1--3-3-|
--L--1------------------3-3-|------3----------------------|
----------------------------|--1-1------------------------|

  E  E  S S S S S S E  S S S S    S S S S E  S S S  S E  S S E
-------------------------------|--------------------------------|
-------------------------------|--------------------------------|
-------------------------------|-----------------1h-3-1---------|
--------1-1-3-3--------1-1-3-3-|----------0--3-3---------3-3----|
-----3----------1--------------|--1-1-1-1--------------------1--|
--1---------------4-1----------|--------------------------------|

  E  E  E  S S S S S S E  S S    S  S E  E  E  E  E  E  S  S
------------------------------|------------------------------|
------------------------------|-------------------------2h-3-|
------------------------------|----------------5--5--5-------|
------------------------------|------------------------------|
--L--1--1--1-1-1-1-1-1-1--1-1-|--1s-3-3--3--3----------------|
------------------------------|------------------------------|

  E  E  S S S S S S E    Q        E  E  E  E  S S S S S S S S
-------------------------------|------------------------------|
-------------------------------|------------------------------|
-------------------------------|--------------1-1-------------|
--1--1--1-1-1-1-1-1-1----------|--------1--3------3-3-1-1-1-1-|
-----------------------6g8\----|-----3------------------------|
-------------------------------|--1---------------------------|

  S S S S E  E  S S S S S S S S    E  E  E  E  S S S S S S S S
--------------------------------|------------------------------|
--------------------------------|------------------------------|
------------------------3-3-1---|------------------------------|
--3-1-3-3-------1-1-3-3-------3-|-----3--------1-1-----1-3-1-1-|
----------0--3------------------|--------0--3------3-3---------|
--------------------------------|--1---------------------------|

                                       Verse 2
  S S S S S  S S S S S   E  S E.       Q    E.  S Q    E  E
-----------------------------------||------------------------|
-----------------------------------||------------------------|
----------3p-1---------3g5----1b---||------------------------|
--3-1-3-3------3-3-1-1-------------||------------------------|
-----------------------------------||------------------------|
-----------------------------------||--1--------1-1-------x--|

  Q    Q    Q    Q       Q    E.  S Q    E  E     Q    Q    Q    Q
----------------------|------------------------|----------------------|
----------------------|------------------------|----------------------|
----------------------|------------------------|----------------------|
----------------------|------------------------|----------------------|
----------------------|------------------------|----------------------|
--1---------1---------|--1--------1-1-------x--|--1---------1---------|

  Q    E.  S Q    E  E     Q    Q    Q    Q       Q    Q    Q    E  E
------------------------|----------------------|-----------------------|
------------------------|----------------------|-----------------------|
------------------------|----------------------|-----------------------|
------------------------|----------------------|-----------------------|
------------------------|----------------------|-----------------------|
--1--------1-1-------x--|--1---------1---------|--1---------1-------x--|

  Q    Q    E  E  S S S S    Q    E  E  E  E  E  E
--------------------------|-------------------------|
--------------------------|-------------------------|
--------------------------|-------------1-----1--3--|
------------------1-0-3-3-|-------0--3-----3--------|
---------------3----------|--1----------------------|
--1---------1-------------|-------------------------|

  Q    E  E  S  S E  S S S S    E  E  E  E  S S S S S S S S
-----------------------------|------------------------------|
-----------------------------|------------------------------|
-------------1h-3-1----------|--------------1-1-------------|
-------0--3----------3-0-1-3-|--------1--3------3-0-1-1-2-3-|
--1--------------------------|-----3------------------------|
-----------------------------|--1---------------------------|

  E  E  E  E  S S S S S S S S    Q    E  E  E  S S E  E
------------------------------|--------------------------|
------------------------------|--------------------------|
--------------1-1-------------|-------------1------1--3--|
--------1--3------3-0-1-1-2-3-|-------0--3-----3-3-------|
-----3------------------------|--1-----------------------|
--1---------------------------|--------------------------|

  Q    E  E  S  S E  S S E     Q    E  E  Q    E  E
----------------------------|------------------------|
----------------------------|------------------------|
-------------1h-3-1---------|------------------------|
-------0--3----------3-3-3--|------------------------|
--1-------------------------|--3----3--3--3----3--3--|
----------------------------|------------------------|

                                   Chorus 2
  S S E  E  E  S  S E  S  S E      E  E  E  E  S S S S S S S S
-------------------------------||------------------------------|
------------3--3h-5-3----------||------------------------------|
--2-2-3--5-------------5p-3-5--||--------------1-1-------------|
-------------------------------||--------1--3------3-0-1-1-2-3-|
-------------------------------||-----3------------------------|
-------------------------------||--1---------------------------|

  E  E  E  E  S S S S S S S S    E  E  E  E  S S S S S S S S
------------------------------|------------------------------|
------------------------------|------------------------------|
--------------1-1-------------|--------------1-1-------------|
--------1--3------3-0-1-1-3-3-|--------1--3------3-0-1-1-2-3-|
-----3------------------------|-----3------------------------|
--1---------------------------|--1---------------------------|

  S S S S E  E  E    E  S E.      E  E  S S S S S S S S S S S S
-------------------------------|--------------------------------|
-------------------------------|--------------------------------|
----------------1--3g5----1b---|----------------1-1-------------|
----------1--3-----------------|--------1-1-3-3-----3-0-1-1-2-3-|
------3-3----------------------|-----3--------------------------|
--1-1--------------------------|--1-----------------------------|

  E  E  S S E  S S S S S S S S    E  E  E  E  S S S S S S S S
-------------------------------|------------------------------|
-------------------------------|------------------------------|
---------------1-1-------------|--------------1-1-------------|
--------1-1-3------3-0-1-1-2-3-|--------1--3------3-0-1-1-2-3-|
-----3-------------------------|-----3------------------------|
--1----------------------------|--1---------------------------|

                                   Outro
  E  E  E  S S S S S S S S S S     E  E  E  E  S S S S S S S S
-------------------------------||------------------------------|
-------------------------------||------------------------------|
---------------1-1-------------||--------------1-1-------------|
--------1--3-3-----3-3-1-1-2-3-||--------1--3------3-0-1-1-2-3-|
-----3-------------------------||-----3------------------------|
--1----------------------------||--1---------------------------|

  E  E  S S E  S S E  S S S S    E  E  E  E  S S S S S S S S
------------------------------|------------------------------|
------------------------------|------------------------------|
---------------1-1-1----------|--------------1-1-------------|
--------1-1-3---------3-3-1-3-|--------1--3------3-3-1-1-2-3-|
-----3------------------------|-----3------------------------|
--1---------------------------|--1---------------------------|

  E  S S E  E  E  S S S S S S    E  E  E  S S S S S S S S S S
------------------------------|-------------------------------|
------------------------------|-------------------------------|
------------------------------|---------------1-1-------------|
---------1-----1--3-3-1-1-3-3-|--------1--3-3-----3-0-1-1-2-3-|
-----3-3----3-----------------|-----3-------------------------|
--1---------------------------|--1----------------------------|

  E  E  E  E  S S S S S S S S    E  E  S S E  S S S S S S S S
------------------------------|-------------------------------|
------------------------------|-------------------------------|
--------------1-1-------------|---------------1-1-------------|
--------1--3------3-3-1-1-3-3-|--------1-1-3------3-3-1-1-1-1-|
-----3------------------------|-----3-------------------------|
--1---------------------------|--1----------------------------|

  S S E  E  S S Q    Q
--------------------------||
--------------------------||
--------------------------||
--1-1-3-----1-1-----------||
--------------------------||
----------------1---------||

5 string - standard tuning
      Intro - m.5
      Q    H.              W                    H        H
F#||--------------------|-------------------|--11-----------------|
C#||--------------------|-------------------|------------0--------|
G#||--------------------|-------------------|---------------------|
D#||--------------------|-------------------|---------------------|
A#||-------0------------|--L----------------|---------------------|

  Q       Q     H            E  E  E  E  E   E  S S S S
--------------------------|-----------------------------|
--L-----------------------|-----------------------------|
--------------------------|--------------5b--5----------|
--------------------------|--------5--7---------7-7-5-7-|
-------7g12----12\--------|--0--7-----------------------|

  E  E  S S E  S S S S S S S S    E  E  S S E  S S S S S S S S
-------------------------------|-------------------------------|
-------------------------------|-------------------------------|
---------------5-5-------------|---------------5-5-------------|
--------5-5-7------7-4-5-5-6-7-|--------5-5-7------7-4-5-5-6-7-|
--0--7-------------------------|--0--7-------------------------|

  E  E  S S E  E    E  S E.      E  E  S S S S S S S S S S S S
------------------------------|--------------------------------|
------------------------------|--------------------------------|
---------------5--7g9----5b---|----------------5-5-------------|
--------5-5-7-----------------|--------5-5-7-7-----7-4-5-5-6-7-|
--0--7------------------------|--0--7--------------------------|

  E  E  S S E  S  S E  S S S S    E  E  E  E  S S S S S S S S
-------------------------------|------------------------------|
-------------------------------|------------------------------|
---------------5h-7-5----------|--------------5-5-------------|
--------5-5-7----------7-4-5-7-|--------5--7------7-4-5-5-6-7-|
--0--7-------------------------|--0--7------------------------|

                                   Verse 1
  E  S S E  S S E    E  S E.       E  S S S S S S E  E  E    S S
-------------------------------||--------------------------------|
-------------------------------||--------------------------------|
----------------5--7g9----5b---||-----------------5--5-----------|
---------5--7-7----------------||---------5-5-7-7-------7--5g7-7-|
--0--7-7-----------------------||--0--7-7------------------------|

  E  E  S S S S S S S S S S S S    E  E  E  E  S S S S S S S S
--------------------------------|------------------------------|
--------------------------------|------------------------------|
----------------5-5-------------|--------------5-5-------------|
--------5-5-7-7-----7-4-5-5-6-7-|--------5--7------7-4-5-5-6-7-|
--0--7--------------------------|--0--7------------------------|

  E  E  E  E  S S S S S S S S    E  E  E  S S S S S S S S S S
------------------------------|-------------------------------|
------------------------------|-------------------------------|
--------------5-5-------------|---------------5-5-------------|
--------5--7------7-4-5-5-6-7-|--------5--7-7-----7-4-5-5-6-7-|
--0--7------------------------|--0--7-------------------------|

  E  E  E  E  S S S S S S S S    E  E  E  E  S S S S S S S S
------------------------------|------------------------------|
------------------------------|------------------------------|
--------------5-5-------------|--------------5-5-------------|
--------5--7------7-4-5-5-6-7-|--------5--7------7-4-5-5-6-7-|
--0--7------------------------|--0--7------------------------|

  E  E  E  E  S  S E  S S S S    E  E  E  E  E  E  E  E
------------------------------|--------------------------|
------------------------------|--------------------------|
--------------5h-7-5----------|--------------5-----5--7--|
--------5--7----------7-4-5-7-|--------4--7-----7--------|
--0--7------------------------|--5--5--------------------|

  Q    E  E  S  S E  E  S S    E  E  S S S S S S S S S S S S
----------------------------|--------------------------------|
----------------------------|--------------------------------|
-------------5h-7-5---------|----------------5-5-------------|
-------4--7----------7--7-7-|--------5-5-7-7-----7-4-5-5-6-7-|
--5-------------------------|--0--7--------------------------|

  E  E  E  E  S S S S S S S S    E  E  E  E  S S S S E  E
------------------------------|----------------------------|
------------------------------|----------------------------|
--------------5-5-------------|--------------5-5-----5--7--|
--------5--7------7-4-5-5-6-7-|--------4--7------7-7-------|
--0--7------------------------|--5--5----------------------|

  Q    E  E  S  S E  E  E     Q.     E  Q    E  E
---------------------------|-----------------------|
---------------------------|-----------------------|
-------------5h-7-5--------|-----------------------|
-------4--7----------7--7--|-----------------------|
--5------------------------|--7------7--7----7--7--|

                                   Chorus 1
  E  E  E  E  S  S E  S S  S S     E  E  E  E  S S S S S S S S
-------------------------------||------------------------------|
-------------------------------||------------------------------|
--6--7--6--9--7h-9-7-----------||--------------5-5-------------|
----------------------9-7------||--------5--7------7-4-5-5-6-7-|
--------------------------10-9-||--0--7------------------------|

  E  E  S S E  S S S S S S S S    E  E  E  E  S S S S S S S S
-------------------------------|------------------------------|
-------------------------------|------------------------------|
---------------5-5-------------|--------------5-5-------------|
--------5-5-7------7-4-5-5-6-7-|--------5--7------7-4-5-5-5-6-|
--0--7-------------------------|--0--7------------------------|

  S S S S E  E  S S   E  S E.      E  S S S S E  S S S S S S S S
--------------------------------|--------------------------------|
--------------------------------|--------------------------------|
--------------------7g9----5b---|----------------5-5-------------|
--7-5-7-7-------5-5-------------|---------5-5-7------7-4-5-5-6-7-|
----------4--7------------------|--0--7-7------------------------|

  E  E  S S E  S S S S S S S S    E  E  E  S S S S S S S S S S
-------------------------------|-------------------------------|
-------------------------------|-------------------------------|
---------------5-5-------------|---------------5-5-------------|
--------5-5-7------7-4-5-5-6-7-|--------5--7-7-----7-4-5-5-6-7-|
--0--7-------------------------|--0--7-------------------------|

                                   Guitar Solo 1
  E  E  E  S S S S S S S S S S     E  E  E  E  S S S S S S S S
-------------------------------||------------------------------|
-------------------------------||------------------------------|
---------------5-5-------------||--------------5-5-------------|
--------5--7-7-----7-4-5-5-6-7-||--------5--7------7-4-5-5-6-7-|
--0--7-------------------------||--0--7------------------------|

  E  E  E  E    E  E  S S S S    E  E  S S E  S S S S S S S S
------------------------------|-------------------------------|
------------------------------|-------------------------------|
--------------5g7--5----------|---------------5-5-------------|
--------5--7----------7-5-7-7-|--------5-5-7------7-4-5-5-6-7-|
--0--7------------------------|--0--7-------------------------|

  S S S S S S E  S S S S S S S S    E  E  E  E  S S S S S S S S
---------------------------------|------------------------------|
---------------------------------|------------------------------|
---------------------------------|--------------5-5-------------|
----------5-5----5-5-7-7-5-5-7-7-|--------5--7------7-4-5-5-6-7-|
--0-0-7-7-----7------------------|--0--7------------------------|

  S S S S E  E    E  E  S S S S    E  E  S S S S E  S S S S S S
--------------------------------|-------------------------------|
--------------------------------|-------------------------------|
----------------5g7--7--5-5-----|----------------5--------------|
----------5--7--------------7-7-|--------5-5-7-7----7-4-5-5-6-7-|
--0-0-7-7-----------------------|--0--7-------------------------|

  E  E  S S E  S S S S S S S S    E  E  E  E  S  S E  E  E
-------------------------------|----------------------------|
-------------------------------|----------------------------|
---------------5-5-------------|--------------5h-7-5--------|
--------5-5-7------7-4-5-5-6-7-|--------4--7----------7-----|
--0--7-------------------------|--5--5-------------------5--|

  E  E  E  E  S S E  E  E     E  E  S S E  S S S S S S S S
---------------------------|-------------------------------|
---------------------------|-------------------------------|
--------------7------------|---------------5-5-------------|
--------4--7----7----7-----|--------5-5-7------7-4-5-5-6-7-|
--L--5------------5-----5--|--0--7-------------------------|

  S S E  E  E  S S S S S S S S    E  E  E  E  S  S E  E  E
-------------------------------|----------------------------|
-------------------------------|----------------------------|
---------------5-5-------------|--------------5h-7-5--------|
---------5--7------7-4-5-5-6-7-|--------4--7----------7-----|
--0-0-7------------------------|--5--5-------------------5--|

  E  E  S S E  E  E  E  E     Q.     E  Q    E  E
---------------------------|-----------------------|
---------------------------|-----------------------|
---------------------------|-----------------------|
---------------------------|-----------------------|
--L--5--5-5-5--5--5--5--5--|--7------7--7----7--7--|

  E  E  E  E   E   E   E   E     E  E  E  E  S S S S S S S S
------------------------------|------------------------------|
------------------------------|------------------------------|
------------------------------|--------------5-5-------------|
------------------------------|--------5--7------7-4-5-5-6-7-|
--7--7--7--7--10--10--10--10--|--0--7------------------------|

  E  E  E  E  S S S S S S S S    E  E  E  E  S S S S S S S S
------------------------------|------------------------------|
------------------------------|------------------------------|
--------------5-5-------------|--------------5-5-------------|
--------5--7------7-4-5-5-6-7-|--------5--7------7-4-5-5-6-7-|
--0--7------------------------|--0--7------------------------|

                                   Guitar Solo 2
  S S S S S S E  S S S S E  E      E  E  E  E  E  E  E  E
-------------------------------||--------------------------|
-------------------------------||--------------------------|
-----------------5-5-----------||--------------------------|
----------5-5-7------7-4-5--7--||--------5--7--------5--5--|
--0-0-7-7----------------------||--0--7--------5--7--------|

  E  E  E  E  E  E  S S S S    E  E  S S E  E  E  S S S S
----------------------------|-----------------------------|
----------------------------|-----------------------------|
----------------------------|-----------------------------|
--------5--7--------5-5-7-7-|--------5-5-7--------5-5-----|
--0--7--------5--7----------|--0--7---------5--7------7-7-|

  E  E  E  E  E  S S S S S S    E  E  E  E  E  E  E.  S
-----------------------------|--------------------------|
-----------------------------|--------------------------|
-----------------------------|--------------------------|
--------5--7---------5-5-----|--------5--7--------5-----|
--0--7--------5--7-7-----7-7-|--0--7--------5--7------7-|

  E  E  S S E  E  E  E  E     E  E  E  S S E  E  E  S S
---------------------------|----------------------------|
---------------------------|----------------------------|
---------------------------|----------------------------|
--------5-5-7--------5--7--|--------5--7-7-------5------|
--0--7---------5--7--------|--0--7---------5--7-----7-7-|

  E  S S E  S S S  S E  S  S S S    Q    E  E  S  S E  E  E
---------------------------------|---------------------------|
---------------------------------|---------------------------|
----------------5h-7-5-----------|-------------5h-7-5--------|
---------5--7-7---------7p-5-7-7-|-------4--7----------7-----|
--0--7-7-------------------------|--5---------------------5--|

  E  E  E  E  S S E  E  S S    S S E  E  E  S S E  E  S S
----------------------------|-----------------------------|
----------------------------|-----------------------------|
-----------5--7-5-----------|---------------5-5-----------|
--------7---------7--5------|---------5--7------7--5--7-7-|
--L--5------------------7-7-|--0-0-7----------------------|

  E  E  S S S S S S E  S S S S    S S S S E  S S S  S E  S S E
-------------------------------|--------------------------------|
-------------------------------|--------------------------------|
-------------------------------|-----------------5h-7-5---------|
--------5-5-7-7--------5-5-7-7-|----------4--7-7---------7-7----|
--0--7----------5-3-0----------|--5-5-5-5--------------------5--|

  E  E  E  S S S S S S E  S S    S  S E  E  E  E  E  E  S  S
------------------------------|------------------------------|
------------------------------|-------------------------6h-7-|
------------------------------|----------------9--9--9-------|
------------------------------|------------------------------|
--L--5--5--5-5-5-5-5-5-5--5-5-|--5s-7-7--7--7----------------|

  E  E  S S S S S S E      Q        E  E  E  E  S S S S S S S S
---------------------------------|------------------------------|
---------------------------------|------------------------------|
---------------------------------|--------------5-5-------------|
--5--5--5-5-5-5-5-5-5------------|--------5--7------7-7-5-5-5-5-|
-----------------------10g12\----|--0--7------------------------|

  S S S S E  E  S S S S S S S S    E  E  E  E  S S S S S S S S
--------------------------------|------------------------------|
--------------------------------|------------------------------|
------------------------7-7-5---|------------------------------|
--7-5-7-7-------5-5-7-7-------7-|-----7--------5-5-----5-7-5-5-|
----------4--7------------------|--0-----4--7------7-7---------|

                                       Verse 2
  S S S S S  S S S S S   E  S E.       Q    E.  S Q    E  E
-----------------------------------||------------------------|
-----------------------------------||------------------------|
----------7p-5---------7g9----5b---||------------------------|
--7-5-7-7------7-7-5-5-------------||------------------------|
-----------------------------------||--0--------0-0-------x--|

  Q    Q    Q    Q       Q    E.  S Q    E  E     Q    Q    Q    Q
----------------------|------------------------|----------------------|
----------------------|------------------------|----------------------|
----------------------|------------------------|----------------------|
----------------------|------------------------|----------------------|
--0---------0---------|--0--------0-0-------x--|--0---------0---------|

  Q    E.  S Q    E  E     Q    Q    Q    Q       Q    Q    Q    E  E
------------------------|----------------------|-----------------------|
------------------------|----------------------|-----------------------|
------------------------|----------------------|-----------------------|
------------------------|----------------------|-----------------------|
--0--------0-0-------x--|--0---------0---------|--0---------0-------x--|

  Q    Q    E  E  S S S S    Q    E  E  E  E  E  E
--------------------------|-------------------------|
--------------------------|-------------------------|
--------------------------|-------------5-----5--7--|
------------------5-4-7-7-|-------4--7-----7--------|
--0---------0--7----------|--5----------------------|

  Q    E  E  S  S E  S S S S    E  E  E  E  S S S S S S S S
-----------------------------|------------------------------|
-----------------------------|------------------------------|
-------------5h-7-5----------|--------------5-5-------------|
-------4--7----------7-4-5-7-|--------5--7------7-4-5-5-6-7-|
--5--------------------------|--0--7------------------------|

  E  E  E  E  S S S S S S S S    Q    E  E  E  S S E  E
------------------------------|--------------------------|
------------------------------|--------------------------|
--------------5-5-------------|-------------5------5--7--|
--------5--7------7-4-5-5-6-7-|-------4--7-----7-7-------|
--0--7------------------------|--5-----------------------|

  Q    E  E  S  S E  S S E     Q    E  E  Q    E  E
----------------------------|------------------------|
----------------------------|------------------------|
-------------5h-7-5---------|------------------------|
-------4--7----------7-7-7--|------------------------|
--5-------------------------|--7----7--7--7----7--7--|

                                   Chorus 2
  S S E  E  E  S  S E  S  S E      E  E  E  E  S S S S S S S S
-------------------------------||------------------------------|
------------7--7h-9-7----------||------------------------------|
--6-6-7--9-------------9p-7-9--||--------------5-5-------------|
-------------------------------||--------5--7------7-4-5-5-6-7-|
-------------------------------||--0--7------------------------|

  E  E  E  E  S S S S S S S S    E  E  E  E  S S S S S S S S
------------------------------|------------------------------|
------------------------------|------------------------------|
--------------5-5-------------|--------------5-5-------------|
--------5--7------7-4-5-5-7-7-|--------5--7------7-4-5-5-6-7-|
--0--7------------------------|--0--7------------------------|

  S S S S E  E  E    E  S E.      E  E  S S S S S S S S S S S S
-------------------------------|--------------------------------|
-------------------------------|--------------------------------|
----------------5--7g9----5b---|----------------5-5-------------|
----------5--7-----------------|--------5-5-7-7-----7-4-5-5-6-7-|
--0-0-7-7----------------------|--0--7--------------------------|

  E  E  S S E  S S S S S S S S    E  E  E  E  S S S S S S S S
-------------------------------|------------------------------|
-------------------------------|------------------------------|
---------------5-5-------------|--------------5-5-------------|
--------5-5-7------7-4-5-5-6-7-|--------5--7------7-4-5-5-6-7-|
--0--7-------------------------|--0--7------------------------|

                                   Outro
  E  E  E  S S S S S S S S S S     E  E  E  E  S S S S S S S S
-------------------------------||------------------------------|
-------------------------------||------------------------------|
---------------5-5-------------||--------------5-5-------------|
--------5--7-7-----7-7-5-5-6-7-||--------5--7------7-4-5-5-6-7-|
--0--7-------------------------||--0--7------------------------|

  E  E  S S E  S S E  S S S S    E  E  E  E  S S S S S S S S
------------------------------|------------------------------|
------------------------------|------------------------------|
---------------5-5-5----------|--------------5-5-------------|
--------5-5-7---------7-7-5-7-|--------5--7------7-7-5-5-6-7-|
--0--7------------------------|--0--7------------------------|

  E  S S E  E  E  S S S S S S    E  E  E  S S S S S S S S S S
------------------------------|-------------------------------|
------------------------------|-------------------------------|
------------------------------|---------------5-5-------------|
---------5-----5--7-7-5-5-7-7-|--------5--7-7-----7-4-5-5-6-7-|
--0--7-7----7-----------------|--0--7-------------------------|

  E  E  E  E  S S S S S S S S    E  E  S S E  S S S S S S S S
------------------------------|-------------------------------|
------------------------------|-------------------------------|
--------------5-5-------------|---------------5-5-------------|
--------5--7------7-7-5-5-7-7-|--------5-5-7------7-7-5-5-5-5-|
--0--7------------------------|--0--7-------------------------|

  S S E  E  S S Q    Q
--------------------------||
--------------------------||
--------------------------||
--5-5-7-----5-5-----------||
----------------0---------||

Alternate intro for 7 String in standard tuning.
      Intro - m.5
      Q    H.              W                    H        H
E ||------11------------|--L----------------|---------------------|
B ||------11------------|--L----------------|---------------------|
F#||------11------------|--L----------------|--11-----------------|
C#||--------------------|-------------------|------------0--------|
G#||--------------------|-------------------|---------------------|
D#||--------------------|-------------------|---------------------|
A#||--------------------|-------------------|---------------------|

Duration Legend
---------------

E - 8th
. - note dotted
----------------

x - dead note
NH - natural harmonic
h - hammer on
b - bend
S - shift slide
s - legato slide
\ -  slide into from above or out of downwards
Version 2 - July 25, 2012
						
# Artist Title Tabdesignator