Charles Mingus

Haitian Fight Song


							
TUNING: Standard (E A D G)
TIME SIGNATURE: 4/4
G|------|-------------------3---6-|-7----7------|-6-------6-------6-----6-----6-----6-----|
D|------|---------------5---------|-------------|----8-------8-------8-----8-----8-----8--|
A|------|-----------5-------------|-------------|-----------------------------------------|
E|------|-------------------------|-------------|-----------------------------------------|

G|------8-----0-----5--3------------------|-------------------3---|-6--7--------5--3-----------3----5----|
D|-8-------8-----4---------5--5--0--------|---------------5-------|-------5--3---------5--5--------------|
A|----------------------------------1-----|-----------5-----------|--------------------------------------|
E|-------------------------------------3--|-3-----3---------------|--------------------------------------|

G|-5----3-------5-6----6-6-6-5---3---5--|-6---3---------------------------|---------------------|
D|----------5---------------------------|---------5-------5----5---5---3--|-5---------5---------|
A|--------------------------------------|-------------5-------------------|-------5---------5---|
E|--------------------------------------|---------------------------------|---------------------|

G|-----2---3---2-------------------|-------------|-----------------2---2-----------------|
D|-5---------------5---3---1---0---|-------------|-----0---1---5----------3--5--0--------|
A|---------------------------------|-4-----3-----|-3-------------------------------1-----|
E|---------------------------------|-------------|------------------------------------3--|

G|---------------------------3--7-|-8----12----12--15--|-17--15--17--15--17--15--1718---|
D|-----------------------5--------|--------------------|--------------------------------|
A|-1----1------------5------------|--------------------|--------------------------------|
E|----------3---3-----------------|--------------------|--------------------------------|

G|-17--15--17---15---12---12---|-12----12---12-12-12--|-12---12--15--16--15--12--15--17--17-17-17-|
D|-----------------------------|----------------------|-------------------------------------------|
A|-----------------------------|----------------------|-------------------------------------------|
E|-----------------------------|----------------------|-------------------------------------------|

G|-17---12--15--17--15--17--15--|-17--15--18---17---15---12---|-12---12-121111-11-11-10-10-111010-109-9--9-8-|
D|------------------------------|-----------------------------|----------------------------------------------|
A|------------------------------|-----------------------------|----------------------------------------------|
E|------------------------------|-----------------------------|----------------------------------------------|

G|-8----8----8-----|-----2---3--2--0-----2--0----------------|---------------------|
D|-----------------|------------------4--------4--2--1---0---|-0-------------------|
A|-----------------|-----------------------------------------|------1----0---------|
E|-----------------|-----------------------------------------|----------------4----|

G|----------------------6----|-7--------------------6----|-7--------------------6----|
D|-----0---5----8---5--------|-----0---5----8---5--------|-----0---5----8---5--------|
A|---------------------------|---------------------------|---------------------------|
E|---------------------------|---------------------------|---------------------------|

G|-7-------8----7---0---6----|----------------------6----|-7--------------------6----|
D|-----0---------------------|-8---0---5----8---5--------|-----0---5----8---5--------|
A|---------------------------|---------------------------|---------------------------|
E|---------------------------|---------------------------|---------------------------|

G|-7--------------------6----|-7---0---8----7---0---6----|----------------------6----|
D|-----0---5----8---5--------|---------------------------|-8---0---5----8---5--------|
A|---------------------------|---------------------------|---------------------------|
E|---------------------------|---------------------------|---------------------------|

G|-7--------------------6----|-7----7----12---6---------0---|-0-----------------------|
D|-----0---5----8---5--------|---------------------8--------|-----0-------------------|
A|---------------------------|------------------------------|----------1----2---------|
E|---------------------------|------------------------------|--------------------3----|

G|----------------------6----|-7--------------------6----|-7--------------------6----|
D|-----0---5----8---5--------|-----0---5----8---5--------|-----0---5----8---5--------|
A|---------------------------|---------------------------|---------------------------|
E|---------------------------|---------------------------|---------------------------|

G|-7--------------------6----|-7--------------------6----|-7--------------------6----|
D|-----0---5----8---5--------|-----0---5----8---5--------|-----0---5----8---5--------|
A|---------------------------|---------------------------|---------------------------|
E|---------------------------|---------------------------|---------------------------|

G|-7--------------------6----|-7---0---8----7---0---6----|----------------------6----|
D|-----0---5----8---5--------|---------------------------|-8---0---5----8---5--------|
A|---------------------------|---------------------------|---------------------------|
E|---------------------------|---------------------------|---------------------------|

G|-7--------------------6----|-7--------------------6----|-7-----12---6-------0---|
D|-----0---5----8---5--------|-----0---5----8---5--------|----------------8-------|
A|---------------------------|---------------------------|------------------------|
E|---------------------------|---------------------------|------------------------|

G|-------------------6----|-7--------------------6----|-7--------------------6----|
D|-0----5----8---5--------|-----0---5----8---5--------|-----0---5----8---5--------|
A|------------------------|---------------------------|---------------------------|
E|------------------------|---------------------------|---------------------------|

G|-7---0---8----7---0---6----|----------------------6----|-7--------------------6----|
D|---------------------------|-8---0---5----8---5--------|-----0---5----8---5--------|
A|---------------------------|---------------------------|---------------------------|
E|---------------------------|---------------------------|---------------------------|

G|-7--------------------6----|-7---0---8----7---0---6----|----------------------6----|
D|-----0---5----8---5--------|---------------------------|-8---0---5----8---5--------|
A|---------------------------|---------------------------|---------------------------|
E|---------------------------|---------------------------|---------------------------|

G|-7--------------------6----|-7--------------------6----|-7---0---8----7---0---6----|
D|-----0---5----8---5--------|-----0---5----8---5--------|---------------------------|
A|---------------------------|---------------------------|---------------------------|
E|---------------------------|---------------------------|---------------------------|

G|----------------------6----|-7--------------------6----|-7--------------------6----|
D|-8---0---5----8---5--------|-----0---5----8---5--------|-----0---5----8---5--------|
A|---------------------------|---------------------------|---------------------------|
E|---------------------------|---------------------------|---------------------------|

G|-7--------------------6----|-7----------------------|---------------------|-----------7---------|
D|-----0---5----8---5--------|-----0---5----8----5----|---------------------|---------------------|
A|---------------------------|------------------------|-5---------5---------|-5--------------5----|
E|---------------------------|------------------------|------6---------3----|------6--------------|

G|---------------------|---------------------|-7-------------------|---------------------|
D|-5---------5---------|-5---------5----8----|------5--------------|------5--------------|
A|------5---------5----|------5--------------|-----------5---------|-5---------5---------|
E|---------------------|---------------------|----------------6----|----------------3----|

G|------7--------------|---------------------|-----------7---------|------------------------|
D|----------------5----|------5----8----5----|------5--------------|-------------------5----|
A|-5---------5---------|-5-------------------|-5--------------5----|---------------5--------|
E|---------------------|---------------------|---------------------|-6----3----6------------|

G|-3-------5--------------|----------------5----|-7----8----10---12---|-14---15---11--------|
D|-----5--------5---------|-----------5---------|---------------------|----------------13---|
A|-------------------5----|-4----3--------------|---------------------|---------------------|
E|------------------------|---------------------|---------------------|---------------------|

G|------5----3---------|---------------------|---------------------|--------------3----6----|
D|-12-------------5----|---------------------|-----------1----0----|-2---4---5--------------|
A|---------------------|-5----0--------------|------0--------------|------------------------|
E|---------------------|-----------3----2----|-3-------------------|------------------------|

G|-7-------8----9----10---|-11---12----------------|---------------------|------------------3----7----|
D|-----0------------------|-----------12--0--------|----------------0----|-0---3---4---5--------------|
A|------------------------|-------------------1----|-0---------1---------|----------------------------|
E|------------------------|------------------------|------3--------------|----------------------------|

G|-9---11--12-------------|-3----------------------|-----------5----7----|-6-------------------|
D|--------------0----5----|--------------5---------|------5--------------|------5--------------|
A|------------------------|-----5---3---------5----|-3-------------------|-----------5---------|
E|------------------------|------------------------|---------------------|----------------6----|

G|---------------------|---------------------|----------------2----|------------------------|
D|---------------------|-5-------------------|-0----2----4---------|-4---0---5---------5----|
A|----------------5----|------0----1----3----|---------------------|--------------5---------|
E|-5----3----6---------|---------------------|---------------------|------------------------|

G|---------------------|-------------7---|-9---11--12------|-------------7---|-9---10--11--12--|
D|------5--------------|-----5---8-------|-------------5---|-----5---8-------|-----------------|
A|-5---------5---------|-5---------------|-----------------|-5---------------|-----------------|
E|----------------6----|-----------------|-----------------|-----------------|-----------------|

G|-14--15--14--12--|-10--9---0-------|-------------3---|-----------------|-----------------|
D|-----------------|-------------0---|-0---5-----------|-----5-----------|-------------5---|
A|-----------------|-----------------|---------5-------|-5-------5---4---|-----5---3-------|
E|-----------------|-----------------|-----------------|-----------------|-6---------------|

G|-7---5---3-------|-----------------|-----------------|-----------------|-5---6---7---8---|
D|-------------5---|-----------------|-3---5---7---8---|-0---5---7---8---|-----------------|
A|-----------------|-5---3---5---6---|-----------------|-----------------|-----------------|
E|-----------------|-----------------|-----------------|-----------------|-----------------|

G|-11--12--14--15--|-14--15------0---|-----8---7-------|-----------------|-3---------------|
D|-----------------|---------15------|-7-----------7---|-0---2---4---5---|-----5---4---3---|
A|-----------------|-----------------|-----------------|-----------------|-----------------|
E|-----------------|-----------------|-----------------|-----------------|-----------------|

G|-------------1---|-----0---12------|-----------------|--------------|--------------|
D|-0---1---3-------|-0-----------0---|-0-----------0---|-0---5----0---|-0--------0---|
A|-----------------|-----------------|-----1---1-------|--------------|-----1--------|
E|-----------------|-----------------|-----------------|--------------|--------------|

G|---------------------|------------------------|------------------------|------------------------|
D|-0----5--------------|---------5--------------|---------5--------------|---------5--------------|
A|-----------5---------|-----5--------5---------|-----5--------5---------|-----5--------5---------|
E|----------------3----|-3-----------------3----|-3-----------------3----|-3-----------------3----|

G|---------------------|------------------------|------------------------|------------------------|
D|------5--------------|---------5--------------|---------5--------------|---------5--------------|
A|-----------5----3----|-----5--------5----3----|-----5--------5---------|-----5--------5---------|
E|-3-------------------|------------------------|-------------------3----|-------------------3----|

G|---------------------|---------------------|------------------3-------2----|-5----3-----2----|
D|---------------------|---------------------|-----2---4---5--------0--------|-----------------|
A|----------------5----|-5--------------5----|-5-----------------------------|-----------------|
E|-3----5----5---------|------5----5---------|-------------------------------|-----------------|

G|-2----3----3------------|---------------------|--------------3-------6----|-7----12-------------|
D|---------------5--------|---------------------|-3---4---5--------5--------|-----------12---5----|
A|-------------------5----|----------------5----|---------------------------|---------------------|
E|------------------------|-6----3----6---------|---------------------------|---------------------|

G|-------------------5----|-7----8----10---12---|-14---12---11---8----|-7----5--------------|
D|--------------5---------|---------------------|---------------------|-----------8----5----|
A|-6---5---3--------------|---------------------|---------------------|---------------------|
E|------------------------|---------------------|---------------------|---------------------|

G|---------------------|---------------------|----------------------8----|-7-------------------|
D|---------------------|-----------0---------|-----0---5----8---5--------|------5--------------|
A|-5----0--------------|------0--------------|---------------------------|-----------5---------|
E|-----------3----2----|-3--------------4----|-1-------------------------|----------------6----|

G|-------------------6----|-7----7-7-6-7----3------------|---------------------|--------------3----6----|
D|------5----8---8--------|---------------------0---5----|---------------------|---------5--------------|
A|-5----------------------|------------------------------|-5-------------------|-----5------------------|
E|------------------------|------------------------------|------6----5----3----|-6----------------------|

G|-7---0-----------------5----|-7----8----10---12---|-14---12---11---8----|-7----5--------------|
D|---------0--------5---------|---------------------|---------------------|-----------8----5----|
A|-------------3--------------|---------------------|---------------------|---------------------|
E|----------------------------|---------------------|---------------------|---------------------|

G|---------------------|---------------------|--------------------------6----|-7----6--------------|
D|---------------------|---------------------|---------4---5----8---5--------|-----------8----6----|
A|-5-------------------|-5----6----8----5----|-5---7-------------------------|---------------------|
E|------5----6----8----|---------------------|-------------------------------|---------------------|

G|---------------------|---------------------|---------------------|----------------6-------|
D|------5--------------|---------------------|---------------------|------0----5--------0---|
A|-5---------5---------|---------------------|-----------0----1----|-3----------------------|
E|----------------6----|-5----3----2----0----|-2----3--------------|------------------------|

G|-----0-----------------5----|-7----8----10---12---|-14---12---11---8----|-7----5--------------|
D|---------0--------5---------|---------------------|---------------------|-----------8----5----|
A|-------------3--------------|---------------------|---------------------|---------------------|
E|----------------------------|---------------------|---------------------|---------------------|

G|---------------------|---------------------|------------------------|---------------------|
D|---------------------|-----------3----6----|-6---0---5---------5----|------5--------------|
A|-5----0----0----3----|-5----6--------------|--------------5---------|-5---------5---------|
E|---------------------|---------------------|------------------------|----------------6----|

G|---------------------|------------------------|------------------------|------------------------|
D|------5--------------|---------5--------------|---------5--------------|---------5--------------|
A|-5---------5---------|-----5--------5---------|-----5--------5---------|-----5--------5---------|
E|----------------3----|-3-----------------3----|-3-----------------3----|-3-----------------3----|

G|-------------------5----|-5----------------------|---------7---------5----|-5-------------------|
D|--------------5---------|-----5---5--------------|--------------5---------|------5--------------|
A|-----5---3--------------|--------------5---------|-----5------------------|-----------5---------|
E|-3----------------------|-------------------3----|-3----------------------|----------------3----|

G|---------------------|---------------------|--------------------------6----|-7-------6--------------|
D|---------------------|---------------------|-----2---4---5----8---5--------|-----5--------8---------|
A|----------------5----|-5--------------5----|-5-----------------------------|-------------------5----|
E|-3----5----5---------|------5----5---------|-------------------------------|------------------------|

G|----------------------6----|-7----12---6------------|---------------------|----------------3----|
D|-5-------5----8---5--------|---------------8---5----|-0-------------------|------0----5---------|
A|-----5---------------------|------------------------|------1----0---------|-1-------------------|
E|---------------------------|------------------------|----------------3----|---------------------|

G|-4---0-----------------5----|-7----8----10---8----|------------------------|---------------------|
D|---------0--------5---------|---------------------|-0---6---5--------------|---------------------|
A|-------------3--------------|---------------------|--------------5---------|----------------5----|
E|----------------------------|---------------------|-------------------6----|-5----3----6---------|

G|---------------------|------------------------|---------------------|---------------------|
D|-5----7----5----4----|------------------------|-----5----------5----|------5--------------|
A|---------------------|-6----5----3--------5---|-5---------5---------|-5---------5---------|
E|---------------------|----------------6-------|---------------------|----------------6----|

G|----------------------6----|-7----8----9----10---|-0----10--12--12--12--12--10--12--|
D|-----4---5----8---5--------|---------------------|----------------------------------|
A|-5-------------------------|---------------------|----------------------------------|
E|---------------------------|---------------------|----------------------------------|

G|-12--12--10--12--12--12--12--10--12--12--|-12--12--10--12--12--12--12--10---|-0-------------------|
D|-----------------------------------------|----------------------------------|---------------------|
A|-----------------------------------------|----------------------------------|------5----3----5----|
E|-----------------------------------------|----------------------------------|---------------------|

G|------------------------|---------------------|---------------------|---------------------|
D|-6-------5--------------|---------------------|-5-------------------|-0----1----3----0----|
A|-----5--------5---------|----------------5----|------0----1----3----|---------------------|
E|-------------------6----|-5----3----6---------|---------------------|---------------------|

G|-1----------------------|---------------------|-------------------6----|-7----6--------------|
D|-----0---5--------------|---------------------|-0----5----8---5--------|-----------8----5----|
A|--------------5---------|---------------------|------------------------|---------------------|
E|-------------------6----|-5----3----2----0----|------------------------|---------------------|

G|---------------------|----------------7----|-0-----------------5----|-7----8----10---12---|
D|---------------------|-----------5---------|-----0--------5---------|---------------------|
A|-5-------------------|------5--------------|---------3--------------|---------------------|
E|------6----5----3----|-6-------------------|------------------------|---------------------|

G|-14--13--12---11--------|------5--------------|---------------------|---------------------|
D|-------------------13---|-12--------8----5----|---------------------|---------------------|
A|------------------------|---------------------|-5-------------------|-5----6----7----8----|
E|------------------------|---------------------|------5----6----8----|---------------------|

G|-------------------6----|-7----6----6----6----|-0----0-0-1112-------------|---------------------|
D|-----7---5----8---------|---------------------|---------------------------|------0--------------|
A|-9----------------------|---------------------|------------------10-------|-10------------------|
E|------------------------|---------------------|----------------------10---|-----------6----5----|

G|---------------------|----------------2----|-0-----------------5----|-7----8----10---8----|
D|---------------------|-----------5---------|-----0--------5---------|---------------------|
A|---------------------|-3----5--------------|---------3--------------|---------------------|
E|-6----3----5----6----|---------------------|------------------------|---------------------|

G|-7---8----------------------|---------------------|---------------------|---------------------|
D|---------8---5--------------|---------------------|-5-------------------|-0----1----3----0----|
A|------------------5---------|----------------5----|------0----1----3----|---------------------|
E|-----------------------6----|-5----3----6---------|---------------------|---------------------|

G|-1-----------------7----|-8----7----8----9----|-11--12--11--10--|-9---8---7-------|
D|-----0---5----8---------|---------------------|-----------------|-------------10--|
A|------------------------|---------------------|-----------------|-----------------|
E|------------------------|---------------------|-----------------|-----------------|

G|-------------0---|-----------------|-----------------|-----5---7---8---|-9---10--12--14--|
D|-10--9---8-------|-0-----------0---|-1---3---5---7---|-8---------------|-----------------|
A|-----------------|-----1---3-------|-----------------|-----------------|-----------------|
E|-----------------|-----------------|-----------------|-----------------|-----------------|

G|-15--12--15--12--|-14--17--16--15--|-13--12--10--9---|-0---------------|-----7---5-------|
D|-----------------|-----------------|-----------------|-----0-----------|-5-----------7---|
A|-----------------|-----------------|-----------------|---------3---5---|-----------------|
E|-----------------|-----------------|-----------------|-----------------|-----------------|

G|-----------------|-----------------|-----------------|-----------------|-----------------|
D|-----5-----------|-----------------|-----5---7---8---|-7---5-------5---|-----------------|
A|-5-------5-------|-5---------------|-5---------------|---------5-------|-5---------------|
E|-------------6---|-----5---6---8---|-----------------|-----------------|-----5---6---7---|

G|-----------------|-----------------|-----------------|--------------|--------------|
D|-------------4---|-5---7---5---4---|-----------------|-6---5--------|--------------|
A|-----5---7-------|-----------------|-7---5---6---8---|----------5---|-5------------|
E|-8---------------|-----------------|-----------------|--------------|-----6----5---|

G|--------------|--------------|---------------------|------------------------|------------------------|
D|--------------|--------------|------5--------------|---------5--------------|---------5--------------|
A|--------------|----------5---|-5---------5---------|-----5--------5---------|-----5--------5---------|
E|-5---3----2---|-2---5--------|----------------3----|-3-----------------3----|-3-----------------3----|

G|------------------------|-------------------5----|-5-------------------|------------------------|
D|---------5--------------|-----5--------5---------|------5--------------|---------5--------------|
A|-----5--------5---------|---------3--------------|-----------5----3----|-3---5--------5---------|
E|-3-----------------3----|-3----------------------|---------------------|-------------------3----|

G|------------------------|---------------------|---------------------|----------------------------|
D|---------5--------------|---------------------|---------------------|-----2---4---5----3---------|
A|-----5--------5---------|----------------5----|-5--------------5----|-5---------------------5----|
E|-3-----------------3----|-3----5----5---------|------5----5---------|----------------------------|

G|---------------------|------------------3---0---6----|-7--------------------5----|
D|-5----0---------0----|-0---2---4---5-----------------|-----0---5----8---5--------|
A|-----------1---------|-------------------------------|---------------------------|
E|---------------------|-------------------------------|---------------------------|

G|-7--------------------6----|-7----11---13---0----|-3---0-----------------5----|-7----8----10---12---|
D|-----0---5----8---5--------|---------------------|---------0--------5---------|---------------------|
A|---------------------------|---------------------|-------------3--------------|---------------------|
E|---------------------------|---------------------|----------------------------|---------------------|

G|-14--13--12---11---8----|-7-------------------|---------------------|---------------------|
D|------------------------|------10---8----5----|---------------------|---------------------|
A|------------------------|---------------------|-5-------------------|-5----6----8----5----|
E|------------------------|---------------------|------5----6----8----|---------------------|

G|----------------------6----|-7-------6--------------|-----6---7-----------------|
D|-6-------5----8---5--------|-----5--------8---------|-5-----------------5---7---|
A|-----5---------------------|-------------------5----|---------------5-----------|
E|---------------------------|------------------------|---------------------------|

G|------------------------------|------------------------|-----------------------|
D|-8---7---6---5----------------|-6----5-----------------|-----------------------|
A|-----------------8---5---6----|----------5-------------|-----------------------|
E|------------------------------|--------------6---3-----|-3---------5---6---8---|

G|---------------------------------|---------------------------|------------------------|
D|-------------5---7---5---8---5---|-5---------5---7---8---5---|-7----8---5--------5----|
A|-5---7---8-----------------------|-------5-------------------|--------------5---------|
E|---------------------------------|---------------------------|------------------------|

G|-----------------------5---|-7---6---5---7---5---7---7---7---8---|-8---8--8--8--8----8-----7---|
D|-5---------5---7---8-------|-------------------------------------|-----------------------------|
A|-------5-------------------|-------------------------------------|-----------------------------|
E|---------------------------|-------------------------------------|-----------------------------|

G|-8----8-8-1112--12-12--1112--11-12-12--12---|-12-----|-----11--12--0-------8---7-------|
D|--------------------------------------------|--------|-----------------8-----------5---|
A|--------------------------------------------|--------|---------------------------------|
E|--------------------------------------------|--------|---------------------------------|

G|-7---6---5-----------------------|---------------------------------|---------------------------------|
D|-------------5-------5---7---8---|-7---5---0-------------------0---|-0---2---3---5---6-------5-------|
A|-----------------5---------------|-------------1-------0---1-------|---------------------5-------4---|
E|---------------------------------|-----------------3---------------|---------------------------------|

G|-----------------------|--------------------------|--------------------------------|
D|-----------------------|--------------------------|------------------------6-------|
A|-4----3-----3--4---3---|-----------4--4--3--3-----|-4--3--3----5---6---5-------5---|
E|-----------------------|--------------------------|--------------------------------|

G|-----------------------|---------------------|------------------------------|------------------------------|
D|-5-----5---7---8---7---|-5---------7----8----|-8---7--------------------5---|-6-------5-------------4-5----|
A|-----------------------|-----8---------------|--------------5---6---8-------|-----5------------------------|
E|-----------------------|---------------------|----------5-------------------|--------------0----0-0--------|

G|-----0---0---0--0-----------0---|-0---0--------------------|-----0----0---0---0---0-0--------0---|
D|--------------------4-5---------|---------4-5---------5----|--------------------------4-5--------|
A|--------------------------------|--------------------------|-------------------------------------|
E|--------------------------------|----------------0---------|-0-----------------------------------|

G|-0---0----5----5-------5---3---|-----------------------|-3---5---5-6---5---3---5-----|
D|-------------------5-----------|-5---0---5-----5---5---|-----------------------------|
A|-------------------------------|-----------------------|-----------------------------|
E|-------------------------------|-----------------------|-----------------------------|

G|-0---3---5-6---5---3-------5---3---|------------------------------|-----0---0----------------------|
D|-----------------------5-----------|-5---5---5----5----5-5-4-5----|--------------5----5----3---3---|
A|-----------------------------------|------------------------------|--------------------------------|
E|-----------------------------------|------------------------------|--------------------------------|

G|----------------|---------------------------------|---------------------------------|
D|------------7---|-6---5---4-------------------6---|-6-------5-----------------------|
A|-5------5-------|-------------5---6---8---5-------|-----5-------5---------------5---|
E|----------------|---------------------------------|-----------------6---3---6-------|

G|----------------|---------6---7---6---7---7---7--7-9-11--|-11--12---12-----|-12--15--17--15------------|
D|----------------|-5---8----------------------------------|-----------------|-----------------17---17---|
A|-5----------5---|----------------------------------------|-----------------|---------------------------|
E|----------------|----------------------------------------|-----------------|---------------------------|

G|----------------|-15---17---17----|-17----18--17--18--17--|-12---12---12----|-12--------12--14--15--14--|
D|-17---------17--|-----------------|-----------------------|-----------------|-------12------------------|
A|----------------|-----------------|-----------------------|-----------------|---------------------------|
E|----------------|-----------------|-----------------------|-----------------|---------------------------|

G|-12--10--9---0-------9---8---7---|-----------------------------------|------------------------------|
D|-----------------8---------------|-5---8--7--5-------------------5---|-6-------5----5----5-5-3-5----|
A|---------------------------------|---------------8---7---5---6-------|-----5------------------------|
E|---------------------------------|-----------------------------------|------------------------------|

G|-----0----0----0-------------|---------------------|------------------------------|
D|-------------------3-4---0---|-0-------------------|----------------------3---5---|
A|-----------------------------|---------------------|--------------5---6-----------|
E|-----------------------------|-------3---6----5----|-6----5---6-------------------|

G|---------------------------------|-------------2---3---0-------0-------|------------------------|
D|-6-------5-----------------------|---------5---------------0-------0---|------------------------|
A|-----5-------5-------------------|-3---5-------------------------------|-1-------1---3-----3----|
E|-----------------6---3---5---6---|-------------------------------------|-----3------------------|

G|-----------------------|---------------------5---6---7---|-7-------5---4---3---------------|
D|-------------------3---|-7-------5---7---8---------------|-----3---------------5-----------|
A|-3-----3---5---6-------|-----5---------------------------|-------------------------5-------|
E|-----------------------|---------------------------------|-----------------------------6---|

G|---------------------------------|---------------------------------|------------------------------|
D|-------------------------3---5---|-6-------5---7---8---5---7---5---|-4-------5-------------3-5----|
A|-------------3---5---6-----------|-----5---------------------------|-----5------------------------|
E|-3---5---6-----------------------|---------------------------------|--------------0----0-0--------|

G|-----0----0---0---0-----------0----|-0---0---4---4---------------5---3-------|---------6---5---------------5---3-------|
D|----------------------4---5--------|-----------------4---5---3-----------4---|-5---5-----------6---5---3-----------5---|
A|-----------------------------------|-----------------------------------------|-----------------------------------------|
E|-0---------------------------------|-----------------------------------------|-----------------------------------------|

G|------6---5---------------5---3---|---------3---2---1---0-----------|----------------|
D|-5------------6---5---3-----------|-5---0-------------------0-------|----------------|
A|----------------------------------|-----------------------------4---|-3----------4---|
E|----------------------------------|---------------------------------|----------------|

G|-----------------------|-1-------------------5---6---7---|-9---11--12--14---12---14--|
D|-----------0---1---3---|-----0---5---7---8---------------|---------------------------|
A|-3-----4---------------|---------------------------------|---------------------------|
E|-----------------------|---------------------------------|---------------------------|

G|-15--12--14---12--11--11---|-----11--11----11--11---|-12--14--15--12--10--0-------9---|
D|---------------------------|------------------------|-------------------------8-------|
A|---------------------------|------------------------|---------------------------------|
E|---------------------------|------------------------|---------------------------------|

G|-----0---0---7-----------5---------------|------------------|-5-----6---7-----|-------------------5---5--5---6-|
D|-----------------5-----------8---8---5---|-5----5-----8-----|-----------------|-0----5---5---8-----------------|
A|---------------------8-------------------|------------------|-----------------|--------------------------------|
E|-----------------------------------------|------------------|-----------------|--------------------------------|

G|-7------7-------|-----5---6---5-----------5-------|---------5------------5-------|
D|------------5---|-8---------------5-----------8---|-5---8--------8---5-------8---|
A|----------------|---------------------8-----------|------------------------------|
E|----------------|---------------------------------|------------------------------|

G|--------------------|---------------------------------|---------------------------------|
D|-5----5-----5-------|-5---7---8---5-------------------|---------7---5---4-----------6---|
A|----------------5---|-----------------5---------------|-5---7---------------5---6-------|
E|--------------------|---------------------6---3---6---|---------------------------------|

G|---------------------------------|------------------------|------------------------|
D|---------4---5---6-----------3---|-6-------5---5-----5----|-3-------3---5-----5----|
A|-5---7---------------5---6-------|-----5------------------|-----5------------------|
E|---------------------------------|------------------------|------------------------|

G|-----6---7---7--7--7--7--7---7---7---7---7---7---|-7---7---7---7-----7---3---|-5---3---5-6----5---3---5---3---|
D|-5-----------------------------------------------|---------------------------|--------------------------------|
A|-------------------------------------------------|---------------------------|--------------------------------|
E|-------------------------------------------------|---------------------------|--------------------------------|

G|-----------------------------|---------------------------------|-------------------------5----7---|
D|-5-------5-------------------|---------5---7---8-------5-------|-----------------5---8------------|
A|-----5--------5--------------|-----5---------------8-------5---|-------------5--------------------|
E|-------------------6----3----|-6-------------------------------|-6---3---6------------------------|

G|-7---8----10---9----8----10---8---|-8---10---8---10--8---10-10-10-10-10--10--8---|
D|----------------------------------|----------------------------------------------|
A|----------------------------------|----------------------------------------------|
E|----------------------------------|----------------------------------------------|

G|-10--8--8-1011--11--10--8---5--------5-7---5---|-------5-----------------------------|
D|--------------------------------5--6-----------|-5--------8--5-----------------------|
A|-----------------------------------------------|----8-------------5------------------|
E|-----------------------------------------------|-----------------------6----3----6---|

G|------------------------------|------------------------|------------------------------|
D|---------------5--------------|-----------5---7---8----|-8---5---4---7----------------|
A|-----3----5---------5---------|-------5----------------|---------------------5---6----|
E|-6-----------------------6----|-3----------------------|-----------------5------------|

G|--------------------|---------------------------|-------------------3-------|-----0-------------3-------|
D|-6-----6-------5----|-5---8-----3---0---5---0---|-0---------0---3-------0---|-3---------0---3-------0---|
A|-----------5--------|---------------------------|---------------------------|---------------------------|
E|--------------------|---------------------------|---------------------------|---------------------------|

G|-----0-------------3-------|-----0---0----------------------|-------------------------------------|
D|-3---------0---3-------0---|-3------------0----0----2-------|-0---2----4----4----5----4---2---0---|
A|---------------------------|----------------------------4---|-------------------------------------|
E|---------------------------|--------------------------------|-------------------------------------|

G|---------7---6--7--6--7--6---7---5---3-------|-3---5---5-----3-------|-3---5-6---6-5---3---5---3---3-----------|
D|-0---------------------------------------5---|-------------------5---|---------------------------------5-------|
A|-----0---------------------------------------|-----------------------|-------------------------------------5---|
E|---------------------------------------------|-----------------------|-----------------------------------------|

G|----------------------|---------------------------------|----------------------|
D|-5----5---3-5---------|-5---7---8---7---5---4---7-------|----------------------|
A|------------------5---|-----------------------------5---|-6----3----5----5-----|
E|----------------------|---------------------------------|----------------------|

G|---------------------------------------|----------------------------|---------6----7------------|
D|-5---8---7--8--7--4---5-------5--------|-------------------0---5----|-8---5------------0---5----|
A|--------------------------5--------5---|-5--------------------------|---------------------------|
E|---------------------------------------|-----6----3---3-------------|---------------------------|

G|---------6----7------------|---------6----7---0---8----|-7---0---6-----------------|
D|-8---5------------0---5----|-8---5---------------------|--------------8---0---5----|
A|---------------------------|---------------------------|---------------------------|
E|---------------------------|---------------------------|---------------------------|

G|---------6----7------------|---------6----7-------0----|-3---0---6----7---0---8----|
D|-8---5------------0---5----|-8---5------------0--------|---------------------------|
A|---------------------------|---------------------------|---------------------------|
E|---------------------------|---------------------------|---------------------------|

G|-7---0---6---------12--12--12--|-12--12--12--15--12--12--12--12--12------12--12--|
D|--------------8----------------|-------------------------------------15----------|
A|-------------------------------|-------------------------------------------------|
E|-------------------------------|-------------------------------------------------|

G|-12--12--12--15--12--12--12--12--12------12--12--|-12--12--12--15--12------12------12--12------12--|
D|-------------------------------------15----------|---------------------12------12----------12------|
A|-------------------------------------------------|-------------------------------------------------|
E|-------------------------------------------------|-------------------------------------------------|

G|-----11------11------11------10------10------9---|-----9-------8-------7---7--------0-----|
D|-12------11------11------11------10------10------|-9-------9-------8------------8------0--|
A|-------------------------------------------------|----------------------------------------|
E|-------------------------------------------------|----------------------------------------|

G|--------------6----7-------|--------------6----7-------|--------------6----7---0---|
D|-5----8---5------------0---|-5----8---5------------0---|-5----8---5----------------|
A|---------------------------|---------------------------|---------------------------|
E|---------------------------|---------------------------|---------------------------|

G|-8----7---0---6------------|--------------6----7-------|--------------6----7----|
D|-------------------8---0---|-5----8---5------------0---|-5----8---5-------------|
A|---------------------------|---------------------------|------------------------|
E|---------------------------|---------------------------|------------------------|

G|-7----12---6---------0---------|---------------------|--------------6----7-------|
D|----------------8---------0----|-----------------0---|-5----8---5------------0---|
A|-------------------------------|-1----2--------------|---------------------------|
E|-------------------------------|-----------3---------|---------------------------|

G|--------------6----7-------|--------------6----7---0---|-8----7---0---6------------|
D|-5----8---5------------0---|-5----8---5----------------|-------------------8---0---|
A|---------------------------|---------------------------|---------------------------|
E|---------------------------|---------------------------|---------------------------|

G|--------------6----7-------|--------------6----7-------|--------------6----7---0---|
D|-5----8---5------------0---|-5----8---5------------0---|-5----8---5----------------|
A|---------------------------|---------------------------|---------------------------|
E|---------------------------|---------------------------|---------------------------|

G|-8----7---0---6------------|--------------6----7-------|--------------6----7-------|
D|-------------------8---0---|-5----8---5------------0---|-5----8---5------------0---|
A|---------------------------|---------------------------|---------------------------|
E|---------------------------|---------------------------|---------------------------|

G|--------------6----7----|-7----12---6---------0---------|---------------------|------6--------------|
D|-5----8---5-------------|----------------8---------0----|-----------0----5----|-8---------5----0----|
A|------------------------|-------------------------------|-1-------------------|---------------------|
E|------------------------|-------------------------------|------3--------------|---------------------|

G|--------------6----7---0---|-8----7---0---6------------|--------------6----7-------|
D|-5----8---5----------------|-------------------8---0---|-5----8---5------------0---|
A|---------------------------|---------------------------|---------------------------|
E|---------------------------|---------------------------|---------------------------|

G|--------------6----7-------|--------------6----7---0---|-8----7---0---6------------|
D|-5----8---5------------0---|-5----8---5----------------|-------------------8---0---|
A|---------------------------|---------------------------|---------------------------|
E|---------------------------|---------------------------|---------------------------|

G|--------------6----7-------|--------------6----7-------|--------------6----7---0---|
D|-5----8---5------------0---|-5----8---5------------0---|-5----8---5----------------|
A|---------------------------|---------------------------|---------------------------|
E|---------------------------|---------------------------|---------------------------|

G|-8----7---0---6------------|---------------------|---------------------|---------------------|
D|-------------------8---0---|-5---------5---------|-----------5---------|---------------------|
A|---------------------------|------5---------5----|------5---------5----|----------------0----|
E|---------------------------|---------------------|-6-------------------|-6----5----3---------|

G|---------------------|---------------------|---------------------|------7--------------|
D|------5--------------|------5--------------|-----------5---------|-5---------5---------|
A|-5---------5----0----|-----------5---------|------5---------5----|----------------5----|
E|---------------------|-3--------------3----|-6-------------------|---------------------|

G|---------------------|------------------------|-12-------------3----|-----------3------------|
D|-----------5----0----|-12-----------5----8----|------0----5---------|-5--------------5-------|
A|------5--------------|----------5-------------|---------------------|------5-------------5---|
E|-6-------------------|------6-----------------|---------------------|------------------------|

G|------3--------------|------3--------------|----------------3----|------3----5----7----|
D|-5---------5---------|-5---------5---------|-----------5---------|-5-------------------|
A|----------------5----|----------------5----|------5--------------|---------------------|
E|---------------------|---------------------|-3-------------------|---------------------|

G|-----------5----7-------|--------------6----7-------|--------------6----7-------|
D|-5----8-------------0---|-5----8---5------------0---|-5----8---5------------0---|
A|------------------------|---------------------------|---------------------------|
E|------------------------|---------------------------|---------------------------|

G|---------------------|-------------|--------|-----------------|-------------|--------|
D|-5----8----5---------|-5-----------|--------|-----------------|-------------|--------|
A|----------------5----|-------------|--------|-3-----5---------|-------------|--------|
E|---------------------|--------3----|-3------|-------------3---|-3-----3-----|--------|
						
# Artist Title Tabdesignator