Between The Buried And Me

Decade Of Statues


							
----------------------------------------

----------------------------------------

------------------

5 String Bass - Tuning - E B F# C# G# 1 1/2 Steps down
------------------

      S S E  S S E  S S E  S S E     S S E  S S E  E  E  E  E
E ||------------------------------|----------------------------|
B ||------------------------------|----------------4-----------|
F#||------------------------------|-------------------3--------|
C#||------------------------------|----------------------2--1--|
G#||--1-2-1--2-2-1--2-2-1--2-2-1--|--2-2-1--2-2-1--------------|

  S S E  S S E  S S E  S S E     S S E  S S E  E  E  E  E
------------------------------|----------------------------|
------------------------------|----------------4-----------|
------------------------------|-------------------3--------|
------------------------------|----------------------2--1--|
--1-2-1--2-2-1--2-2-1--2-2-1--|--2-2-1--2-2-1--------------|

  S S E  S S E  S S E  S S E     S S E  S S E  E  E  E  E
------------------------------|----------------------------|
------------------------------|----------------4-----------|
------------------------------|-------------------3--------|
------------------------------|----------------------2--1--|
--1-2-1--2-2-1--2-2-1--2-2-1--|--2-2-1--2-2-1--------------|

  S S E  S S E  S S E  S S E     S S E  S S E  E  E  E  E     W
------------------------------|----------------------------|-------------------|
------------------------------|----------------4-----------|-------------------|
------------------------------|-------------------3--------|-------------------|
------------------------------|----------------------2--1--|-------------------|
--1-2-1--2-2-1--2-2-1--2-2-1--|--2-2-1--2-2-1--------------|-------------------|

  S S E  S S E  S S E  S S E     S S E  S S E  E  E  Q
------------------------------|---------------------------|
------------------------------|---------------------------|
------------------------------|---------------------------|
------------------------------|----------------2--5--1----|
--1-2-1--2-2-1--2-2-1--2-2-1--|--2-2-1--2-2-1-------------|

  S S E  S S E  S S E  S S E     S S E  S S E  E  E  Q
------------------------------|---------------------------|
------------------------------|---------------------------|
------------------------------|---------------------------|
------------------------------|----------------2--5--1----|
--1-2-1--2-2-1--2-2-1--2-2-1--|--2-2-1--2-2-1-------------|

  S S E  S S E  S S E  S S E     S S E  S S E  E  E  Q
------------------------------|---------------------------|
------------------------------|---------------------------|
------------------------------|---------------------------|
------------------------------|----------------2--5--1----|
--1-2-1--2-2-1--2-2-1--2-2-1--|--2-2-1--2-2-1-------------|

  S S E  S S E  S S E  S S E     S S E  S S E  E  E  E  E     H
------------------------------|----------------------------|-----------|
------------------------------|----------------------------|-----------|
------------------------------|----------------------------|-----------|
------------------------------|----------------2--5--1-----|-----------|
--1-2-1--2-2-1--2-2-1--2-2-1--|--2-2-1--2-2-1--------------|-----------|

  |-3|    |-3|

  E  Q    E  Q       E  E  E  E     E  E  E  E  E  E  E  E
------------------|--------------|--------------------------|
------------------|-----------2--|--------------------------|
------------------|-----1--4-----|--------------------------|
--2-------2-------|--2-----------|--1--0--0--1--2--1--0--0--|
------------------|--------------|--------------------------|

  E  E  E   E  E  E  E  E      E  E  E  E  E  E  E  E     E  E  E  E  E  E  E  E
----------------------------|--------------------------|--------------------------|
-----------10--L--9---------|--------------------------|--------------------------|
--------8------------8--L\--|--------------------------|--3--------3--------3-----|
--1--0----------------------|--1--0--0--1--2--1--0--0--|-----2--0-----2--0-----2--|
----------------------------|--------------------------|--------------------------|

  E  E  E  E  E  E  E  E     E  E  E   E  E  E  E  E      E  E  E  E  E  E  E  E
--------------------------|----------------------------|--------------------------|
--------------------------|-----------10--L--9---------|--------------------------|
--------------------------|--------8------------8--L\--|--------------------------|
--1--0--0--1--2--1--0--0--|--1--0----------------------|--1--0--0--1--2--1--0--0--|
--------------------------|----------------------------|--------------------------|

  E  E  E  E  E  E  E  E     Q    Q    Q    E  E     E  E  E  E  E  E  E  E
--------------------------|-----------------------|--------------------------|
--------------------4-----|------------8----4-----|--------------------------|
--------2--1-----------3--|-------4---------------|--------------------------|
--2--5--------3--6--------|--2--------------------|--1--0--0--1--2--1--0--0--|
--------------------------|-----------------------|--------------------------|

  E  E  E   E  E  E  E  E      E  E  E  E  E  E  E  E
----------------------------|--------------------------|
-----------10--L--9---------|--------------------------|
--------8------------8--L\--|--------------------------|
--1--0----------------------|--1--0--0--1--2--1--0--0--|
----------------------------|--------------------------|

   E   E  E   E   E  E   Q       E  E  E  E  E  E  E  E
------------------------------|--------------------------|
------------------------------|--------------------------|
--12---------12---------------|--------------------------|
------13--0------13--0--13----|--1--0--0--1--2--1--0--0--|
------------------------------|--------------------------|

  E  E  E   E  E  E  E  E      E  E  E  E  E  E  E  E
----------------------------|--------------------------|
-----------10--L--9---------|--------------------------|
--------8------------8--L\--|--------------------------|
--1--0----------------------|--1--0--0--1--2--1--0--0--|
----------------------------|--------------------------|

  |----3----|    |----3----|

  Q    Q    Q    Q    Q    Q       E  E  E  E  E  E  E  E
--------------------------------|--------------------------|
--------------------------------|--------------------------|
--------------------------------|--------------------------|
--1----2----1----4----2----1----|--1--0--0--1--2--1--0--0--|
--------------------------------|--------------------------|

  E  E  E  E  E  E  E  E     E  E  E  E  E  E  E  E     E  E  E  E  E  E  E  E
--------------------------|--------------------------|--------------------------|
--------------------------|--------------------------|--------------------------|
--------------------------|--------------------------|--------------------------|
--1--0--1--0--0--2--1--0--|--1--0--0--1--2--1--0--0--|--1--0--1--0--0--2--1--0--|
--------------------------|--------------------------|--------------------------|

  |----3----|

  Q    Q    Q    E  E  E  E     E  E  E  E  E  E  E  E     E  E  E  E  E  E  E  E
-----------------------------|--------------------------|--------------------------|
-----------------------------|--------------------------|--------------------------|
-----------------------------|--------------------------|--------------------------|
--1----1----1----2--1--0--0--|--1--0--1--0--0--2--1--0--|--1--0--0--1--2--1--0--0--|
-----------------------------|--------------------------|--------------------------|

                             |----3----|

  E  E  E  E  E  E  E  E     Q    Q    Q    E  E  E  E     E  E   E  E  Q    E  E
--------------------------|-----------------------------|---------------------------|
--------------------------|-----------------------------|--------10-----9-----------|
--------------------------|-----------------------------|-----8------8-------8--L\--|
--1--0--1--0--0--2--1--0--|--1----1----1----2--1--0--0--|--1------------------------|
--------------------------|-----------------------------|---------------------------|

                                                         |----3----|

  E  E  E  E  E  E  E  E     E  E   E  E  Q    E  E      Q    Q    Q    E  E  E  E
--------------------------|---------------------------|-----------------------------|
--------------6-----------|--------10-----9-----------|-----------------------------|
--------8--9-----9-----8--|-----8------8-------8--L\--|-----------------------------|
--1--8--------------8-----|--1------------------------|--1----1----1----2--1--0--0--|
--------------------------|---------------------------|-----------------------------|

  E  E  E  E  E  E  E  E     E  E  E  E  E  E  E  E     E  E  E  E  E  E  E  E
--------------------------|--------------------------|--------------------------|
--------------------------|--------------------------|--------------------------|
--------------------------|--------------------------|--------------------------|
--1--0--1--0--0--2--1--0--|--1--0--0--1--2--1--0--0--|--1--0--1--0--0--2--1--0--|
--------------------------|--------------------------|--------------------------|

  |----3----|

  Q    Q    Q    E  E  E  E     E  E  E  E  H
-----------------------------|-----------------------|
-----------------------------|-----------------------|
-----------------------------|-----------------------|
--1----1----1----2--1--0--1--|--0--4--3--------------|
-----------------------------|-----------------------|

  E  E  E  E  E  E  E  E  E  E     E  E  E  E  E  E  E  E  E  E
--------------------------------|--------------------------------|
--------------------------------|--------------------------------|
--------------------------------|--------------------------------|
--3--3--3--3-----3--3-----1--1--|--3--3--3--3-----3--3-----1--1--|
--------------------------------|--------------------------------|

  E  E  E  E  E  E  E  E  E  E     E  E  E  E  E  E  E  E  E  E
--------------------------------|--------------------------------|
--------------------------------|--------------------------------|
--------------------------------|--------------------------------|
--3--3--3--3-----3--3-----1--1--|--3--3--3--3-----3--3-----1--1--|
--------------------------------|--------------------------------|

  E  E  E  E  E  E  E  E  E  E     E  E  E  E  E  E  E  E  E  E
--------------------------------|--------------------------------|
--------------------------------|--------------------------------|
--------------------------------|--------------------------------|
--3--3--3--3-----3--3-----1--1--|--3--3--3--3-----3--3-----1--1--|
--------------------------------|--------------------------------|

  E  E  E  E  E  E  E  E  E  E     E  E  E  E  E  E  E  E  E  E
--------------------------------|--------------------------------|
--------------------------------|--------------------------------|
--------------------------------|--------------------------------|
--3--3--3--3-----3--3-----1--1--|--0--1--0--4--3--0--1--0--3--4--|
--------------------------------|--------------------------------|

  E  E  E  E  E  E  E  E  E  E     E  E  E  E  E  E  E  E  E  E
--------------------------------|--------------------------------|
--------------------------------|--------------------------------|
--------------------------------|--------------------------------|
--3--3--3--3-----3--3-----1--1--|--3--3--3--3-----3--3-----1--1--|
--------------------------------|--------------------------------|

  E  E  E  E  E  E  E  E  E  E     E  E  E  E  E  E  E  E  E  E
--------------------------------|--------------------------------|
--------------------------------|--------------------------------|
--------------------------------|--------------------------------|
--3--3--3--3-----3--3-----1--1--|--3--3--3--3-----3--3-----1--1--|
--------------------------------|--------------------------------|

  E  E  E  E  E  E  E  E  E  E     E  E  E  E  E  E  E  E  E  E
--------------------------------|--------------------------------|
--------------------------------|--------------------------------|
--------------------------------|--------------------------------|
--3--3--3--3-----3--3-----1--1--|--3--3--3--3-----3--3-----1--1--|
--------------------------------|--------------------------------|

  E  E  E  E  E  E  E  E  E  E     E  E  E  E  E  E  E  E  E  E
--------------------------------|--------------------------------|
--------------------------------|--------------------------------|
--------------------------------|--------------------------------|
--3--3--3--3-----3--3-----1--1--|--0--1--0--4--3--0--1--0--3--4--|
--------------------------------|--------------------------------|

  E   E   Q    Q    Q    E  E     E   E   Q    Q    Q    E  E
-------------------------------|-------------------------------|
--------------------5----3-----|--------------------5----3-----|
-------------------------------|-------------------------------|
--3h--4p--3----4------------1--|--3h--4p--3----4------------1--|
-------------------------------|-------------------------------|

  E   E   Q    Q    Q    E  E     E  E  E  E  E  E  E  E  E  E
-------------------------------|--------------------------------|
--------------------5----3-----|--------------------------------|
-------------------------------|--------------------------------|
--3h--4p--3----4------------1--|--0--1--0--4--3--0--1--0--3--4--|
-------------------------------|--------------------------------|

  E   E   Q    Q    Q    E  E     E   E   Q    Q    Q    E  E
-------------------------------|-------------------------------|
--------------------5----3-----|--------------------5----3-----|
-------------------------------|-------------------------------|
--3h--4p--3----4------------1--|--3h--4p--3----4------------1--|
-------------------------------|-------------------------------|

  E   E   Q    Q    Q    E  E     E  E  E  E  E  E  E  E  E  E
-------------------------------|--------------------------------|
--------------------5----3-----|--------------------------------|
-------------------------------|--------------------------------|
--3h--4p--3----4------------1--|--0--1--0--4--3--0--1--0--3--4--|
-------------------------------|--------------------------------|

  E  E  E  E  E  E  E  E  E  E  E  E  Q       E  E  E  E  E  E
-------------------------------------------|--------------------|
-------------------------------------------|--------7--4--------|
--------------------4--5-------------------|-----5--------6--5--|
--0--7--6--0--3--0--------0--5--0--6--2----|--3-----------------|
-------------------------------------------|--------------------|

  E  E  E  E  E  E      E  E  E  E  E  E     E  E  E  E  E  E     W
--------8--5--------|--11--8--5-----------|--------------------|-------------------|
-----6--------7--6--|------------4-----6--|--7--4--------------|-------------------|
--4-----------------|---------------5-----|--------8--4--------|-------------------|
--------------------|---------------------|--------------8--5--|--1----------------|
--------------------|---------------------|--------------------|-------------------|

  W                   S S S S E  E  H           S S S S E  E  E  E   E  E
-------------------|-------------------------|------------------------------|
-------------------|-------------------------|------------------------------|
-------------------|--2----------------------|--2----------------2S--8--L/--|
--L----------------|----1-0-0-1--1-----------|----1-0-0-1--4--0-------------|
-------------------|-------------------------|------------------------------|

  S S S S E  E  E  E   E  E      S S S S E  E  E  E   E  E
------------------------------|------------------------------|
------------------------------|------------------------------|
--2----------------2S--8--L/--|--2----------------2S--8--L/--|
----1-0-0-1--4--0-------------|----1-0-0-1--4--0-------------|
------------------------------|------------------------------|

  S S S S E  E  E  E   E  E      S S S S E  E  E  E   E  E
------------------------------|------------------------------|
------------------------------|------------------------------|
--2----------------2S--7--L/--|--2----------------2S--8--L/--|
----1-0-0-1--4--0-------------|----1-0-0-1--4--0-------------|
------------------------------|------------------------------|

  S S S S E  E  E  E   E  E      S S S S E  E  E  E   E  E
------------------------------|------------------------------|
------------------------------|------------------------------|
--2----------------2S--8--L/--|--2----------------2S--8--L/--|
----1-0-0-1--4--0-------------|----1-0-0-1--4--0-------------|
------------------------------|------------------------------|

  S S S S E  E  E  E   E  E      S S E  S S E  S S E  S S E
------------------------------|------------------------------|
------------------------------|--3-3----3-3----3-3----3-3----|
--2----------------2S--7--L/--|------------------------------|
----1-0-0-1--4--0-------------|------------------------------|
------------------------------|------------------------------|

  S S S S E  E  E  E   Q       S S S S E  E  E  E  E  E
----------------------------|----------------------------|
----------------------------|----------------------6-----|
--2----------------2S--8----|--2----------------2-----8--|
----1-0-0-1--4--0-----------|----1-0-0-1--4--0-----------|
----------------------------|----------------------------|

  S S S S E  E  E  E   Q       S S S S E  E  E  E   Q
----------------------------|----------------------------|
----------------------------|----------------------------|
--2----------------2S--8----|--2----------------2S--7----|
----1-0-0-1--4--0-----------|----1-0-0-1--4--0-----------|
----------------------------|----------------------------|

  S S S S E  E  E  E   Q       S S S S E  E  E  E  E  E
----------------------------|----------------------------|
----------------------------|----------------------6-----|
--2----------------2S--8----|--2----------------2-----8--|
----1-0-0-1--4--0-----------|----1-0-0-1--4--0-----------|
----------------------------|----------------------------|

  S S S S E  E  E  E   Q       S S S S E  E  E  E   Q
----------------------------|----------------------------|
----------------------------|----------------------------|
--2----------------2S--8----|--2----------------2S--7----|
----1-0-0-1--4--0-----------|----1-0-0-1--4--0-----------|
----------------------------|----------------------------|

  S S E  S S E  S S E  S S E     S S E  S S E  S S E  S S E
------------------------------|------------------------------|
--3-3----3-3----3-3----3-3----|------------------------------|
------------------------------|------------------------------|
------------------------------|------------------------------|
------------------------------|--1-2-1--2-2-1--2-2-1--2-2-1--|

  E  E  E  E  E  E  E  E     E  E  E  E     Q    Q    Q    Q
--------------------------|--------------|----------------------|
--------------------------|--------------|----------------------|
--------------------------|--------------|-------4---------5----|
--2--5--1-----2--5--1-----|--2-----2-----|--2---------3---------|
--------------------------|--------------|----------------------|

  Q    Q    Q    E  E     Q    E  E  Q    Q       Q    Q    Q    E  E
--------------------5--|--2-------5-------4----|--------------------5--|
-------4----5----4-----|-------4-----3---------|-------4----5----4-----|
-----------------------|-----------------------|-----------------------|
--2--------------------|-----------------------|--2--------------------|
-----------------------|-----------------------|-----------------------|

  Q    E  E  Q    Q       Q    Q    Q    E  E     Q    E  E  Q    Q
--2-------5-------4----|--------------------5--|--2-------5-------4----|
-------4-----3---------|-------4----5----4-----|-------4-----3---------|
-----------------------|-----------------------|-----------------------|
-----------------------|--2--------------------|-----------------------|
-----------------------|-----------------------|-----------------------|

  E   E  S  S  S  S  E   E  E  E      E  E  E  E  E  E  Q
---------8h-9p-8h-9p-8------------|--------------------------|
-----10-----------------10--9--7--|--------------------------|
--9-------------------------------|--10--9--7--6-----6-------|
----------------------------------|---------------8-----7----|
----------------------------------|--------------------------|

  Q    Q    Q    E  E     Q    E  E  Q    Q       Q    Q    Q    E  E
--------------------5--|--2-------5-------4----|--------------------5--|
-------4----5----4-----|-------4-----3---------|-------4----5----4-----|
-----------------------|-----------------------|-----------------------|
--2--------------------|-----------------------|--2--------------------|
-----------------------|-----------------------|-----------------------|

  Q    E  E  Q    Q       Q    Q    Q    E  E     Q    E  E  Q    Q
--2-------5-------4----|--------------------5--|--2-------5-------4----|
-------4-----3---------|-------4----5----4-----|-------4-----3---------|
-----------------------|-----------------------|-----------------------|
-----------------------|--2--------------------|-----------------------|
-----------------------|-----------------------|-----------------------|

  E   E  E  E  E  E  Q       E  E  E  E  E  E  E  E     E  E  E  E  E  E  Q
---------8--9-------------|--------------------------|-------------------------|
-----10--------7--6-------|--------------------------|-------------------------|
--7------------------8----|--------------------------|--------------------3----|
--------------------------|--0--2--L--0--4--2--5--1--|--5--2--L--4--1----------|
--------------------------|--------------------------|-------------------------|

                                                      |--3--|  |--3--|

  E  E  E  E  E  E  Q       E  E  E  E  E  E  Q       E  E  E  E  E  E  E  E  E  E
-------------------------|-------------------------|--------------------------------|
-------------------------|-------------------------|--------------------------------|
--------------------3----|--------------------3----|--------------------1-----1--2--|
--5--2--L--4--1----------|--5--2--L--4--1----------|--5--2--0--4--1--0-----0--------|
-------------------------|-------------------------|--------------------------------|

  E  E  E  E  E  E  Q       E  E  E  E  E  E  Q       E  E  E  E  E  E  Q
-------------------------|-------------------------|-------------------------|
-------------------------|-------------------------|-------------------------|
--------------------3----|--------------------3----|--------------------3----|
--5--2--L--4--1----------|--5--2--L--4--1----------|--5--2--L--4--1----------|
-------------------------|-------------------------|-------------------------|

  |--3--|  |--3--|

  E  E  E  E  E  E  E  E  E  E     E  E  E  E  H           E  E  E  E  E  E  Q
--------------------------------|-----------------------|-------------------------|
--------------------------------|-----------------------|-------------------------|
--------------------1-----1--2--|--6--5-----------------|-------------------------|
--5--2--0--4--1--0-----0--------|--------5--6-----------|--5--2--L--4--1----------|
--------------------------------|-----------------------|--------------------1----|

                                                      |--3--|  |--3--|

  E  E  E  E  E  E  Q       E  E  E  E  E  E  Q       E  E  E  E  E  E  E  E  E  E
-------------------------|-------------------------|--------------------------------|
-------------------------|-------------------------|--------------------------------|
-------------------------|-------------------------|--------------------1-----1--2--|
--5--2--L--4--1----------|--5--2--L--4--1----------|--5--2--0--4--1--0-----0--------|
--------------------1----|--------------------1----|--------------------------------|

  E  E  E  E  E  E  Q       E  E  E  E  E  E  Q       E  E  E  E  E  E  Q
-------------------------|-------------------------|-------------------------|
-------------------------|-------------------------|-------------------------|
-------------------------|-------------------------|-------------------------|
--5--2--L--4--1----------|--5--2--L--4--1----------|--5--2--L--4--1----------|
--------------------1----|--------------------1----|--------------------1----|

  |--3--|  |--3--|

  E  E  E  E  E  E  E  E  E  E     E  E  E  E  E  E  Q       E  E  E  E  E  E  Q
--------------------------------|-------------------------|-------------------------|
--------------------------------|-------------------------|-------------------------|
--------------------1-----1--2--|-------------------------|-------------------------|
--5--2--0--4--1--0-----0--------|--5--2--L--4--1----------|--5--2--L--4--1----------|
--------------------------------|--------------------1----|--------------------1----|

                            |--3--|  |--3--|

  E  E  E  E  E  E  Q       E  E  E  E  E  E  E  E  E  E     E  E  E  E  E  E  Q
-------------------------|--------------------------------|-------------------------|
-------------------------|--------------------------------|-------------------------|
-------------------------|--------------------1-----1--2--|-------------------------|
--5--2--L--4--1----------|--5--2--0--4--1--0-----0--------|--5--2--L--4--1----------|
--------------------1----|--------------------------------|--------------------1----|

                                                      |--3--|  |--3--|

  E  E  E  E  E  E  Q       E  E  E  E  E  E  Q       E  E  E  E  E  E  E  E  E  E
-------------------------|-------------------------|--------------------------------|
-------------------------|-------------------------|--------------------------------|
-------------------------|-------------------------|--------------------1-----1--2--|
--5--2--L--4--1----------|--5--2--L--4--1----------|--5--2--0--4--1--0-----0--------|
--------------------1----|--------------------1----|--------------------------------|

  E  E  E  E     E  E  E  E  E  E     E  E  E  E  E  E      E  E  E  E  E  E
--------------|--------------------|--------8--5--------|--11--8--5-----------|
--------------|--------7--4--------|-----6--------7--6--|------------4-----6--|
--6--5--------|-----5--------6--5--|--4-----------------|---------------5-----|
--------5--6--|--3-----------------|--------------------|---------------------|
--------------|--------------------|--------------------|---------------------|

  E  E  E  E  E  E     E  E  E  E  E  E  Q       W                   H.
--------------------|-------------------------|-------------------|---------------|
--7--4--------------|--6--------7--4----------|-------------------|---------------|
--------8--4--------|-----5-----------6-------|-------------------|---------------|
--------------8--5--|--------7----------------|-------------------|---------------|
--------------------|-------------------------|-------------------|---------------|

  W                   H.              Q    Q    H           Q    Q    Q
-------------------|---------------|---------------------|-----------------|
-------------------|---------------|-------5-------------|-----------------|
-------------------|---------------|--7---------4--------|------------5----|
-------------------|---------------|---------------------|--7----4---------|
-------------------|---------------|---------------------|-----------------|

  Q.     E  Q    Q       E  E  Q    H.              Q    Q    E  E
----------------------|--------------------------|------------------|
----------------------|--------------------------|------------------|
--3------4--L----1----|--L--2--L-----------------|---------------4--|
----------------------|-------------1------------|--1----3----2-----|
----------------------|--------------------------|------------------|

  Q.     E  Q       Q.     E  Q       Q    Q    Q       Q    Q    E  E
-----------------|---------4--L----|-----------------|------------------|
---------4--L----|--3--------------|-----------------|------------------|
--3--------------|-----------------|--5----3----4----|---------------4--|
-----------------|-----------------|-----------------|--1----3----2-----|
-----------------|-----------------|-----------------|------------------|

  Q.     E  Q       Q.     E  Q       Q.     E  E  E      Q    Q    Q
-----------------|-----------------|-------------------|--9--------------|
---------4--L----|-----------------|-------------------|-----------------|
--3--------------|--4------3--L----|--2------1--L--L/--|-------5----6----|
-----------------|-----------------|-------------------|-----------------|
-----------------|-----------------|-------------------|-----------------|

  Q    Q    Q       Q    Q    Q       Q    Q    Q       Q    Q    Q
-----------------|--9--------------|-------7----6----|--9--------------|
--5----7----6----|-----------------|--5--------------|-----------------|
-----------------|-------5----6----|-----------------|-------5----6----|
-----------------|-----------------|-----------------|-----------------|
-----------------|-----------------|-----------------|-----------------|

  Q    Q    Q       Q    Q    H           H        Q       Q    Q    Q
-----------------|---------------------|----------------|-----------------|
--5----7----6----|-------5-------------|----------------|-----------------|
-----------------|--7---------4--------|----------------|-------3----4----|
-----------------|---------------------|--1--------2----|--L--------------|
-----------------|---------------------|----------------|-----------------|

  Q    Q    Q       Q    Q    Q       E  E  E  E  E   E     Q    Q    Q
-----------------|-------5----6----|-----5--L--4--L--11--|--7----5----6----|
--3----5----4----|--L--------------|--3------------------|-----------------|
-----------------|-----------------|---------------------|-----------------|
-----------------|-----------------|---------------------|-----------------|
-----------------|-----------------|---------------------|-----------------|

  Q.     E  Q        Q.     E  Q       E  E  E  E  E  E     E  E  E  E  E  E
-----------------|------------------|--9-----------------|-----------------8--|
-----------------|--/9------8--L----|-----7-----8--------|--------7-----6-----|
--4------3--L----|------------------|--------5-----6-----|-----5-----4--------|
-----------------|------------------|-----------------4--|--3-----------------|
-----------------|------------------|--------------------|--------------------|

  E  E  E  E  E  E     E  E  E  E  E  E     E  E  E  E  E  E     E  E  E  E  E  E
--9-----------------|-----------------8--|--9-----------------|-----------------8--|
-----7-----8--------|--------7-----6-----|-----7-----8--------|--------7-----6-----|
--------5-----6-----|-----5-----4--------|--------5-----6-----|-----5-----4--------|
-----------------4--|--3-----------------|-----------------4--|--3-----------------|
--------------------|--------------------|--------------------|--------------------|

  Q    Q    H           E  E  E  E  E  E  Q       Q.     Q    E     H.
---------------------|--------1--4-------------|-----------------|---------------|
-------5-------------|-----0--------3----------|--7--------------|---------------|
--7---------4--------|--2--------------5--L----|---------7-------|--6------------|
---------------------|-------------------------|-----------------|---------------|
---------------------|-------------------------|-----------------|--4------------|

  H.               S  S  S  S  S  S  S  S  S  S  S  S  S  S  S  S
---------------|--------------------------------------------10-12-|
---------------|-----------10-12-10----------------10-12-13-------|
--L------------|--10-11-13----------13-11-10-11-13----------------|
---------------|--------------------------------------------------|
--L------------|--------------------------------------------------|

  E  S S S S E  H           Q    E  S S E  S S E  E     H        Q    E  E
-------------------------|----------8-7----6---5-----|-------------------0s--|
-----4---3---------------|---------------------------|-----------------------|
-------------------------|---------------------------|-----------------------|
-------------------------|---------------------------|-----------------------|
-------------------------|---------------------------|-----------------------|

  E  E  Q    Q    S  S  S  S     S S  S  S  S  S S  S  S  S  S S Q
--6--------------------------|-------11-12-14-15---17-18-20-21--------|
-----5--------------10-11-13-|--14------------------------------------|
-----------------------------|----------------------------------------|
-----------------------------|----------------------------------------|
-----------------------------|----------------------------------------|

   S  S  S  S  S  S  S  S  S  S  S  S  S  S  S  S
--------------------------------------------10-12-|
-----------10-12-10----------------10-12-13-------|
--10-11-13----------13-11-10-11-13----------------|
--------------------------------------------------|
--------------------------------------------------|

  E  S S S S E  E   S S  S  S  S  S    S S E  E  S S E  S S E  E
------------------------------------|--8---------8-7----6---5-----|
-----4---3---------12-8-------------|----5------------------------|
------------------------10-------11-|-----------------------------|
---------------------------10-12----|-----------------------------|
------------------------------------|-----------------------------|

   Q    Q    S S S S E  E      E  E  E  S  S  S  S E  S  S  S  S
--/5---------5-6-7-8----0s--|--6---------------------------------|
--------6-------------------|-----5---------------------10-11-13-|
----------------------------|-----------9-10-12-13---------------|
----------------------------|------------------------------------|
----------------------------|------------------------------------|

   S S  S  S  S  S S  S  S  S  S S Q
-------11-12-14-15---17-18-20-21--------|
--14------------------------------------|
----------------------------------------|
----------------------------------------|
----------------------------------------|

   S  S  S  S  S  S  S  S  S  S  S  S  S  S  S  S     S  S  S  S  S  S  S  S Q
--------------------------------------------------|--------------------10-12------|
-----------10-12-10----------------10-12-10-------|-----------10-12-13------------|
--10-11-13----------13-11-10-11-13----------13-11-|--10-11-13---------------------|
--------------------------------------------------|-------------------------------|
--------------------------------------------------|-------------------------------|

  H           E  E  E  E  E  E  E  E  E  E     E  E  E  E  E  E  E  E  E  E
-----------|--------------------------------|--------------------------------|
-----------|--------------------------------|--------------------------------|
-----------|--------------------------------|--------------------------------|
-----------|--3--3--3--3-----3--3-----1--1--|--3--3--3--3-----3--3-----1--1--|
--3--------|--------------------------------|--------------------------------|

  E  E  E  E  E  E  E  E  E  E     E  E  E  E  E  E  E  E  E  E
--------------------------------|--------------------------------|
--------------------------------|--------------------------------|
--------------------------------|--------------------------------|
--3--3--3--3-----3--3-----1--1--|--0--1--0--4--3--0--1--0--3--4--|
--------------------------------|--------------------------------|

  E  E  E  E  E  E  E  E  E  E     E  E  E  E  E  E  E  E  E  E
--------------------------------|--------------------------------|
--------------------------------|--------------------------------|
--------------------------------|--------------------------------|
--3--3--3--3-----3--3-----1--1--|--3--3--3--3-----3--3-----1--1--|
--------------------------------|--------------------------------|

  E  E  E  E  E  E  E  E  E  E     E  E  E  E  E  E  E  E  E  E
--------------------------------|--------------------------------|
--------------------------------|--------------------------------|
--------------------------------|--------------------------------|
--3--3--3--3-----3--3-----1--1--|--0--1--0--4--3--0--1--0--3--4--|
--------------------------------|--------------------------------|

  E   E   Q    Q    Q    E  E     E   E   Q    Q    Q    E  E
-------------------------------|-------------------------------|
--------------------5----3-----|--------------------5----3-----|
-------------------------------|-------------------------------|
--3h--4p--3----4------------1--|--3h--4p--3----4------------1--|
-------------------------------|-------------------------------|

  E   E   Q    Q    Q    E  E     E  E  E  E  E  E  E  E  E  E
-------------------------------|--------------------------------|
--------------------5----3-----|--------------------------------|
-------------------------------|--------------------------------|
--3h--4p--3----4------------1--|--0--1--0--4--3--0--1--0--3--4--|
-------------------------------|--------------------------------|

  E   E   Q    Q    Q    E  E     E   E   Q    Q    Q    E  E
-------------------------------|-------------------------------|
--------------------5----3-----|--------------------5----3-----|
-------------------------------|-------------------------------|
--3h--4p--3----4------------1--|--3h--4p--3----4------------1--|
-------------------------------|-------------------------------|

  E   E   Q    Q    Q    E  E     E  E  E  E  E  E  E  E  E  E
-------------------------------|--------------------------------|
--------------------5----3-----|--------------------------------|
-------------------------------|--------------------------------|
--3h--4p--3----4------------1--|--0--1--0--4--3--0--1--0--3--4--|
-------------------------------|--------------------------------|

  E  E  E  E  E  E  E  E  E  E  E  E  E  E     H.
--------------------------------------------|---------------||
--------------------------------------------|---------------||
--------------------4--5--------------------|---------------||
--0--7--6--0--3--0--------0--5--0--6--2-----|---------------||
--------------------------------------------|---------------||

Duration Legend
---------------

E - 8th
. - note dotted
----------------

x - dead note
(n) - ghost note
NH - natural harmonic
AH - artificial harmonic
TH - tapped harmonic
SH - semi harmonic
PH - pitch harmonic
h - hammer on
b - bend
br - bendRelease
pb - preBend
pbr - preBendRelease
brb - bendReleaseBend
S - shift slide
s - legato slide
/ -  slide into from below or out of upwards
\ -  slide into from above or out of downwards
~ - vibrato
W - wide vibrato
T - tapping
						
# Artist Title Tabdesignator